Spineshank - Transparent Chords & Tabs

 

Transparent Chords & Tabs

Spineshank Chords & Tabs

Version: 2 Type: Tab 0 ratings
1 star 2 stars 3 stars 4 stars 5 stars
comments

Transparent Tab

   
Artist - Spineshank
Song - Transparent
Album - The Height of Callousness


Tuning: (Low to High) - A E A D G B

Intro
|-----------------------------------------|
|-----------------------------------------|
|-----------------------------------------|
|-----------------7-7-8-8-8-8-------------|
|-----------------7-7-8-8-8-8-------------|
|--0-0-1-0-0-0-0--7-7-8-8-8-8-------------|

Verse 1
|-----------------------------------------|
|-----------------------------------------|
|-----------------------------------------|
|--2-0-2-x-x------------------------------|
|--2-0-2-x-x------------------------------|
|--2-0-2-x-x------------------------------|

Verse Fill
|-----------------------------------------|
|-----------------------------------------|
|-----------------------------------------|
|-----------------------------------------|
|-----------------------------------------|
|--2-0-2-0-0-2-0--------------------------|
[ Tab from: http://www.guitartabs.cc/tabs/s/spineshank/transparent_tab_ver_2.html ]
Chorus 
|-----------------------------------------|
|----2-2---9-9---10-10---7----------------|
|----2-2---9-9---10-10---7----------------|
|--0-----7-----8-------5------------------|
|--0-----7-----8-------5------------------|
|--0-----7-----8-------5------------------|

Verse 2
|-----------------------------------------|
|-----------------------------------------|
|-----------------------------------------|
|--2-0-2-0-0-2-0---8-8-7-7-7-7------------|
|--2-0-2-0-0-2-0---8-8-7-7-7-7------------|
|--2-0-2-0-0-2-0---8-8-7-7-7-7------------|

Overdub of variation
|-----------------------------------------|
|-----------------------------------------|
|-----------------------------------------|
|--0-0----7-7----8-8----5-5---------------|
|--0-0----7-7----8-8----5-5---------------|
|--0-0----7-7----8-8----5-5---------------|

Variation [Wah-Wah Pedal]
|-----------------------------------------|
|---2-2----9-9------10--10------7-7-------|
|--2-2-2--9-9-9---10--10--10---7-7-7------|
|-----------------------------------------|
|-----------------------------------------|
|-----------------------------------------|

Ending
|-----------------------------------------|
|-----------------------------------------|
|-----------------------------------------|
|--0--------------------------------------|
|--0--------------------------------------|
|--0--------------------------------------|


tab taken from http://snap.to/spineshank
Comments