Spineshank - Transparent Chords & Tabs

 

Transparent Chords & Tabs

Spineshank Chords & Tabs

Version: 1 Type: Bass Tab 0 ratings
1 star 2 stars 3 stars 4 stars 5 stars
comments

Transparent Bass Tab

I tried my best.  Please tell me if it's correct.  It should be

Intro and The middle of the song
G-----------------------------------------------------------
D------------4-4-5-555--------------------------------------
A-3-3-4-3333------------------------------------------------
E-----------------------------------------------------------
Repeat Four times

verse
G-----------------------------------------------------------
D-----------------------------------------------------------
A-4-2-4--4-2-4--4-2-4--4-2-4--4-2-4--4-2-4--4-2-4--4-2-4----
E-----------------------------------------------------------

Solo kind of verse
G-----------------------------------------------------------
D-----------------------------------------------------------
A-4-2-4-2-42-4-2-4-2-42-4-2-4-2-42-4-2-4-2-42---------------
E-----------------------------------------------------------
[ Tab from: http://www.guitartabs.cc/tabs/s/spineshank/transparent_btab.html ]
Prechorus
G-----------------------------------------------------------
D-----------2--1------------2--1-----------2--1-------------
A-4-2-4-2-42------4-2-4-2-42-----4-2-4-2-42-----4-2-4-2-42--
E-----------------------------------------------------------

G-----------------------------------------------------------
D-2--1------------------------------------------------------
A-----------------------------------------------------------
E-----------------------------------------------------------

Chorus
G-----------------------------------------------------------
D---4-5-2---4-5-2---4-5-2---4-5-2---------------------------
A-3------3--------3-------3---------------------------------
E-----------------------------------------------------------

Solo
G-----------------------------------------------------------
D---44-55-22----44-55-22----44-55-22----44-55-22----44-55-22
A-33----------33----------33----------33----------33--------
E-----------------------------------------------------------

I got alittle lazy so I didn't write the verse, prechorus, and chorus twice.
Comments