Spineshank - Synthetic Chords & Tabs

 

Synthetic Chords & Tabs

Spineshank Chords & Tabs

Version: 6 Type: Tab 0 ratings
1 star 2 stars 3 stars 4 stars 5 stars
comments

Synthetic Tab

Song: Synthetic
Artist: Spineshank

Before I start writing out the tabs, I just wanna say I have seen some 
pretty terrible tabs for Spineshank before, BUT THEY DO NOT USE DROP-D!!!
They have an incredibly fucked tuning that took me about ayear to figure out!
I have seen them i concert many times and I know EXACTLY what frets Mike uses
in the song!

Tuning: A#-F-A#-D#-G-C(told ya it was fucked)

(Distortion basicly thru-out except for the effects and bass break break)

(Quick drum intro)

(Intro. Distortion)(Notes in () are barred with the thumb. Ull figure the rest of
the fingering out)
C--------------------------------------------------------------------------------------
G--------------------------------------------------------------------------------------
D#-------------------------------------14-14-14-14-14--13---14---14---14---14---14--15-
A#-12-12-12-12-12-14-15-15-15-15-15-14-12-12-12-12-12-(14)-(15)-(15)-(15)-(15)-(15)-14-
F--12-12-12-12-12-14-15-15-15-15-15-14-12-12-12-12-12-(14)-(15)-(15)-(15)-(15)-(15)-14-
A#-12-12-12-12-12-14-15-15-15-15-15-14-12-12-12-12-12-(14)-(15)-(15)-(15)-(15)-(15)-14-   

C--------------------------------------------------------------------------------------
G--------------------------------------------------------------------------------------
D#-------------------------------------14-14-14-14-14--13---14---14---14---14---14--15-
A#-12-12-12-12-12-14-15-15-15-15-15-14-12-12-12-12-12-(14)-(15)-(15)-(15)-(15)-(15)-14-
F--12-12-12-12-12-14-15-15-15-15-15-14-12-12-12-12-12-(14)-(15)-(15)-(15)-(15)-(15)-14-
A#-12-12-12-12-12-14-15-15-15-15-15-14-12-12-12-12-12-(14)-(15)-(15)-(15)-(15)-(15)-14-  

( ' is an up-stroke, " is a down-stroke)

Verse(Im not sure what kind of effect he used here)
C---------------------------
G---------------------------
D#--5--5--5--5--5--5--5--5--
A#--5--5--5--5--5--5--5--5--
F---3--3--3--3--3--3--3--3--
A#--------------------------
    "  '  "  '  "  '  "  '

Pre-Chorus
C-------------------------------
G-------------------------------
D#------------------------------
A#------------------------------
F--7-7-7--8-8-8---5-5-5--6-6-6--
A#-7-7-7--8-8-8---5-5-5--6-6-6--

C-------------------------------
G-------------------------------
D#------------------------------
A#------------------------------
F--7-7-7--8-8-8---5-5-5--6-6-6--
A#-7-7-7--8-8-8---5-5-5--6-6-6--

(Fill)
C---------------------------------------
G---------------------------------------
D#--9-9-9-9--7--14-14-14-14-14-14-14-14-
A#--x-x-x-x--x---x--x--x--x--x--x--x--x-
F---7-7-7-7--5--12-12-12-12-12-12-12-12-
A#--------------------------------------

(Chorus)
C--------------------------------------------------------------------------------------
G--------------------------------------------------------------------------------------
D#-------------------------------------14-14-14-14-14--13---14---14---14---14---14--15-
A#-12-12-12-12-12-14-15-15-15-15-15-14-12-12-12-12-12-(14)-(15)-(15)-(15)-(15)-(15)-14-
F--12-12-12-12-12-14-15-15-15-15-15-14-12-12-12-12-12-(14)-(15)-(15)-(15)-(15)-(15)-14-
A#-12-12-12-12-12-14-15-15-15-15-15-14-12-12-12-12-12-(14)-(15)-(15)-(15)-(15)-(15)-14-   

C--------------------------------------------------------------------------------------
G--------------------------------------------------------------------------------------
D#-------------------------------------14-14-14-14-14--13---14---14---14---14---14--15-
A#-12-12-12-12-12-14-15-15-15-15-15-14-12-12-12-12-12-(14)-(15)-(15)-(15)-(15)-(15)-14-
F--12-12-12-12-12-14-15-15-15-15-15-14-12-12-12-12-12-(14)-(15)-(15)-(15)-(15)-(15)-14-
A#-12-12-12-12-12-14-15-15-15-15-15-14-12-12-12-12-12-(14)-(15)-(15)-(15)-(15)-(15)-14-  

(Verse)
C---------------------------
G---------------------------
D#--5--5--5--5--5--5--5--5--
A#--5--5--5--5--5--5--5--5--
F---3--3--3--3--3--3--3--3--
A#--------------------------
    "  '  "  '  "  '  "  '

(Pre-Chorus)
C-------------------------------
G-------------------------------
D#------------------------------
A#------------------------------
F--7-7-7--8-8-8---5-5-5--6-6-6--
A#-7-7-7--8-8-8---5-5-5--6-6-6--

C-------------------------------
G-------------------------------
D#------------------------------
A#------------------------------
F--7-7-7--8-8-8---5-5-5--6-6-6--
A#-7-7-7--8-8-8---5-5-5--6-6-6--


(Fill)
C---------------------------------------
G---------------------------------------
D#--9-9-9-9--7--14-14-14-14-14-14-14-14-
A#--x-x-x-x--x---x--x--x--x--x--x--x--x-
F---7-7-7-7--5--12-12-12-12-12-12-12-12-
A#--------------------------------------
[ Tab from: http://www.guitartabs.cc/tabs/s/spineshank/synthetic_tab_ver_6.html ]
(Chorus)
C--------------------------------------------------------------------------------------
G--------------------------------------------------------------------------------------
D#-------------------------------------14-14-14-14-14--13---14---14---14---14---14--15-
A#-12-12-12-12-12-14-15-15-15-15-15-14-12-12-12-12-12-(14)-(15)-(15)-(15)-(15)-(15)-14-
F--12-12-12-12-12-14-15-15-15-15-15-14-12-12-12-12-12-(14)-(15)-(15)-(15)-(15)-(15)-14-
A#-12-12-12-12-12-14-15-15-15-15-15-14-12-12-12-12-12-(14)-(15)-(15)-(15)-(15)-(15)-14-   

C--------------------------------------------------------------------------------------
G--------------------------------------------------------------------------------------
D#-------------------------------------14-14-14-14-14--13---14---14---14---14---14--15-
A#-12-12-12-12-12-14-15-15-15-15-15-14-12-12-12-12-12-(14)-(15)-(15)-(15)-(15)-(15)-14-
F--12-12-12-12-12-14-15-15-15-15-15-14-12-12-12-12-12-(14)-(15)-(15)-(15)-(15)-(15)-14-
A#-12-12-12-12-12-14-15-15-15-15-15-14-12-12-12-12-12-(14)-(15)-(15)-(15)-(15)-(15)-14-  

(Fill)
C---------------------------------------
G---------------------------------------
D#--9-9-9-9--7--14-14-14-14-14-14-14-14-
A#--x-x-x-x--x---x--x--x--x--x--x--x--x-
F---7-7-7-7--5--12-12-12-12-12-12-12-12-
A#--------------------------------------


(Fill2--This is where Jonny screams "GO!")
C---------------------------------------------------------------
G---------------------------------------------------------------
D#--------------------------------------------------------------
A#--------------------------------------------------------------
F---2-2-2-2-2--0--7-7-7-7-7-7-7-7-2-2-2-2-2--0--7-7-7-7-7-7-7-7-
A#--2-2-2-2-2--0--7-7-7-7-7-7-7-7-2-2-2-2-2--0--7-7-7-7-7-7-7-7-

C----------------------------------------------------------------
G----------------------------------------------------------------
D#---------------------------------------------------------------
A#---------------------------------------------------------------
F---2-2-2-2-2--0--7-7-7-7-7-7-7-7-2-2-2-2-2--0--7-7-7-7-7-7-7-7--
A#--2-2-2-2-2--0--7-7-7-7-7-7-7-7-2-2-2-2-2--0--7-7-7-7-7-7-7-7--


(Effects break)
"I will neve follow you"

(Bass break: All this time I thought I was myself....."

(Fill)
C---------------------------------------
G---------------------------------------
D#--9-9-9-9--7--14-14-14-14-14-14-14-14-
A#--x-x-x-x--x---x--x--x--x--x--x--x--x-
F---7-7-7-7--5--12-12-12-12-12-12-12-12-
A#--------------------------------------

C---------------------------------------
G---------------------------------------
D#--9-9-9-9--7--14-14-14-14-14-14-14-14-
A#--x-x-x-x--x---x--x--x--x--x--x--x--x-
F---7-7-7-7--5--12-12-12-12-12-12-12-12-
A#--------------------------------------


(Chorus)
C--------------------------------------------------------------------------------------
G--------------------------------------------------------------------------------------
D#-------------------------------------14-14-14-14-14--13---14---14---14---14---14--15-
A#-12-12-12-12-12-14-15-15-15-15-15-14-12-12-12-12-12-(14)-(15)-(15)-(15)-(15)-(15)-14-
F--12-12-12-12-12-14-15-15-15-15-15-14-12-12-12-12-12-(14)-(15)-(15)-(15)-(15)-(15)-14-
A#-12-12-12-12-12-14-15-15-15-15-15-14-12-12-12-12-12-(14)-(15)-(15)-(15)-(15)-(15)-14-   

C--------------------------------------------------------------------------------------
G--------------------------------------------------------------------------------------
D#-------------------------------------14-14-14-14-14--13---14---14---14---14---14--15-
A#-12-12-12-12-12-14-15-15-15-15-15-14-12-12-12-12-12-(14)-(15)-(15)-(15)-(15)-(15)-14-
F--12-12-12-12-12-14-15-15-15-15-15-14-12-12-12-12-12-(14)-(15)-(15)-(15)-(15)-(15)-14-
A#-12-12-12-12-12-14-15-15-15-15-15-14-12-12-12-12-12-(14)-(15)-(15)-(15)-(15)-(15)-14-  


(Outro)
C-------------------------------
G-------------------------------
D#------------------------------
A#------------------------------
F--7-7-7--8-8-8---5-5-5--6-6-6--
A#-7-7-7--8-8-8---5-5-5--6-6-6--

C-------------------------------
G-------------------------------
D#------------------------------
A#------------------------------
F--7-7-7--8-8-8---5-5-5--6-6-6--
A#-7-7-7--8-8-8---5-5-5--6-6-6--

C-------------------------------
G-------------------------------
D#------------------------------
A#------------------------------
F--7-7-7--8-8-8---5-5-5--6-6-6--
A#-7-7-7--8-8-8---5-5-5--6-6-6--

C-------------------------------
G-------------------------------
D#------------------------------
A#------------------------------
F--7-7-7--8-8-8---5-5-5--6-6-6--
A#-7-7-7--8-8-8---5-5-5--6-6-6--
Comments