Spineshank - Synthetic Chords & Tabs

 

Synthetic Chords & Tabs

Spineshank Chords & Tabs

Version: 5 Type: Tab 0 ratings
1 star 2 stars 3 stars 4 stars 5 stars
comments

Synthetic Tab

   
Song: Synthetic
Artist: Spineshank
Album: The Height of Callousness
Tabbed by: Christian / silent_warrior_@hotmail.com

/ - Slide up

Tuning: B F# B E G# C#


Intro
|-----------------------------------------------|
|-----------------------------------------------|
|-6-6-6-6-6-6-8-9-9-9-9-9-9-8---9-9-9-9-9-9-9-9-| x2
|-6-6-6-6-6-6-8-9-9-9-9-9-9-8-7-9-9-9-9-9-9-9-9-|
|-4-4-4-4-4-4-6-7-7-7-7-7-7-6-7-7-7-7-7-7-7-7-7-|
|-4-4-4-4-4-4-6-7-7-7-7-7-7-6-7-7-7-7-7-7-7-7-7-|

Verse - Bass only

Chorus 1
|-----------------------------|
|-----------------------------|
|-----------------------------| x4
|-6-6-6-6-6-6-7--4-4-4--2-4-2-|
|-6-6-6-6-6-6-7--4-4-4--2-4-2-|
|-6-6-6-6-6-6-7--4-4-4--2-4-2-|

Fill
|--------------------------------------|
|--------------------------------------|
|-8-8-8-8-8-7-7-7-14-14-14-14-14-14-12-| x1
|--------------------------------------|
|-6-6-6-6-6-5-5-5-12-12-12-12-12-12-10-|
|--------------------------------------|

Chorus 2
|-----------------------------------------------|
|-----------------------------------------------|
|-6-6-6-6-6-6-8-9-9-9-9-9-9-8---9-9-9-9-9-9-9-9-| x2
|-6-6-6-6-6-6-8-9-9-9-9-9-9-8-7-9-9-9-9-9-9-9-9-|
|-4-4-4-4-4-4-6-7-7-7-7-7-7-6-7-7-7-7-7-7-7-7-7-|
|-4-4-4-4-4-4-6-7-7-7-7-7-7-6-7-7-7-7-7-7-7-7-7-|

Verse - Bass only

Chorus 1
|-----------------------------|
|-----------------------------|
|-----------------------------| x4
|-6-6-6-6-6-6-7--4-4-4--2-4-2-|
|-6-6-6-6-6-6-7--4-4-4--2-4-2-|
|-6-6-6-6-6-6-7--4-4-4--2-4-2-|
[ Tab from: http://www.guitartabs.cc/tabs/s/spineshank/synthetic_tab_ver_5.html ]
Fill
|--------------------------------------|
|--------------------------------------|
|-8-8-8-8-8-7-7-7-14-14-14-14-14-14-12-| x1
|--------------------------------------|
|-6-6-6-6-6-5-5-5-12-12-12-12-12-12-10-|
|--------------------------------------|

Chorus 2
|-----------------------------------------------|
|-----------------------------------------------|
|-6-6-6-6-6-6-8-9-9-9-9-9-9-8---9-9-9-9-9-9-9-9-| x2
|-6-6-6-6-6-6-8-9-9-9-9-9-9-8-7-9-9-9-9-9-9-9-9-|
|-4-4-4-4-4-4-6-7-7-7-7-7-7-6-7-7-7-7-7-7-7-7-7-|
|-4-4-4-4-4-4-6-7-7-7-7-7-7-6-7-7-7-7-7-7-7-7-7-|

Fill
|--------------------------------------|
|--------------------------------------|
|-8-8-8-8-8-7-7-7-14-14-14-14-14-14-12-| x1
|--------------------------------------|
|-6-6-6-6-6-5-5-5-12-12-12-12-12-12-10-|
|--------------------------------------|

Bridge
|--------------------------|
|--------------------------|
|--------------------------| x4
|-1--1--0--1/7-7-7-7-7-7-7-|
|-1--1--0--1/7-7-7-7-7-7-7-|
|-1--1--0--1/7-7-7-7-7-7-7-|


Fill
|--------------------------------------|
|--------------------------------------|
|-8-8-8-8-8-7-7-7-14-14-14-14-14-14-12-| x2
|--------------------------------------|
|-6-6-6-6-6-5-5-5-12-12-12-12-12-12-10-|
|--------------------------------------|

Chorus 2
|-----------------------------------------------|
|-----------------------------------------------|
|-6-6-6-6-6-6-8-9-9-9-9-9-9-8---9-9-9-9-9-9-9-9-| x4
|-6-6-6-6-6-6-8-9-9-9-9-9-9-8-7-9-9-9-9-9-9-9-9-|
|-4-4-4-4-4-4-6-7-7-7-7-7-7-6-7-7-7-7-7-7-7-7-7-|
|-4-4-4-4-4-4-6-7-7-7-7-7-7-6-7-7-7-7-7-7-7-7-7-|

End
|-----------------------------|     |-----------------------------|
|-----------------------------|     |-----------------------------|
|-6-6-6-6-6-6-7--4-4-4--2-4-2-| x3  |-6-6-6-6-6-6-7--4-4-4--4-2-4-| x1
|-6-6-6-6-6-6-7--4-4-4--2-4-2-|     |-6-6-6-6-6-6-7--4-4-4--4-2-4-|
|-6-6-6-6-6-6-7--4-4-4--2-4-2-|     |-6-6-6-6-6-6-7--4-4-4--4-2-4-|
Comments