Spineshank - Synthetic Chords & Tabs

 

Synthetic Chords & Tabs

Spineshank Chords & Tabs

Version: 3 Type: Tab 0 ratings
1 star 2 stars 3 stars 4 stars 5 stars
comments

Synthetic Tab

Synthetic
S P I N E S H A N K
Tabbed by Aaron Bridgeman (rokken@sicness.net)

http://bogans.arecool.net

INTRO/CHORUS:
b |-------------------------------------------------------------------|
F#|-------------------------------------------------------------------|
D |-------------------------------------------------------------------|
A |-8-8-8-8-8-10-11-11-11-11-11-10-10---------------------------------|
E |-6-6-6-6-6-8--9--9--9--9--9--8--8--9-9-9-9-9-9-9-9-9-9-9-9-9-9-9-9-|
B |-----------------------------------7-7-7-7-7-7-7-7-7-7-7-7-7-7-7-7-|
[ Tab from: http://www.guitartabs.cc/tabs/s/spineshank/synthetic_tab_ver_3.html ]
PRE-CHORUS:
b |-----------------------------|
F#|-----------------------------|
D |-----------------------------|
A |-----------------------------|
E |-8--8-8-8-9---6--6--6--------|
B |-6--6-6-6-7---4--4--4--0-1-0-|

OCTAVE FILL:
b |-------------------------------------------|
F#|-------------------------------------------|
D |-10-10-10-10-10-10-9--16-16-16-16-16-16-16-|
A |-x--x--x--x--x--x--x--x--x--x--x--x--x--x--|
E |-8--8--8--8--8--8--7--14-14-14-14-14-14-14-|
B |-------------------------------------------|

HEAVY BRIDGE:
b |-------------------------|
F#|-------------------------|
D |-------------------------|
A |-------------------------|
E |-3--3---2--9-9-9-9-9-9-9-|
B |-1--1---0--7-7-7-7-7-7-7-|

ROKK OUT!
Comments