Spineshank - Synthetic Chords & Tabs

 

Synthetic Chords & Tabs

Spineshank Chords & Tabs

Version: 1 Type: Tab 0 ratings
1 star 2 stars 3 stars 4 stars 5 stars
comments

Synthetic Tab

Author/Artist/Spineshank 
Title: Synthetic
Transcribed by: Brad
E-Mail: Mentally_Disturbed_20@Hotmail.com


E ----------------------------------------------------------------------------------------------------------
B ----------------------------------------------------------------------------------------------------------
G -3-3-3-3-3-5-6-6-6-5-3-4-4-4-4-4-4-4-4-4-4-4-4-----------------------------------------------
D -3-3-3-3-3-5-6-6-6-5-3-4-4-4-4-4-4-4-4-4-4-4-4-----------------------------------------------
A -1-1-1-1-1-3-4-4-4-3-1-4-4-4-4-4-4-4-4-4-4-4-4-----------------------------------------------
E ----------------------------------------------------------------------------------------------------------

Repeat this bit 2x


E ---------------------------------------------------------------------------------------------------------
B ---------------------------------------------------------------------------------------------------------
G -3-3-3-3-4-3-1-1-1-1-------------------------------------------------------------------------------
D -3-3-3-3-4-3-1-1-1-1-------------------------------------------------------------------------------
A -3-3-3-3-4-3-1-1-1-1-------------------------------------------------------------------------------
E -1-1-1-1-2-1-1-1-1-1-------------------------------------------------------------------------------

Repeat this bit 4x

[ Tab from: http://www.guitartabs.cc/tabs/s/spineshank/synthetic_tab.html ]
E ---------------------------------------------------------------------------------------------------------
B ---------------------------------------------------------------------------------------------------------
G -5-5-4-4-11------------------------------------------------------------------------------------------
D -5-5-4-4-11------------------------------------------------------------------------------------------
A -5-5-4-4-11------------------------------------------------------------------------------------------
E -3-3-2-2-9--------------------------------------------------------------------------------------------


Repeat the whole thing again and then play this 



E -3-3-2-2-6-------------------------------------------------------------------------------------------
B -3-3-2-2-6-------------------------------------------------------------------------------------------
G -3-3-2-2-6-------------------------------------------------------------------------------------------
D -3-3-2-2-6-------------------------------------------------------------------------------------------
A -3-3-2-2-6-------------------------------------------------------------------------------------------
E -3-3-2-2-6-------------------------------------------------------------------------------------------

After that you repeat the chorus and the other stuff but other than that it should sound fine!
Enjoy!!!!!!!! Listen to the song to get the timing right!!






Comments