Spineshank - Synthetic Chords & Tabs

 

Synthetic Chords & Tabs

Spineshank Chords & Tabs

Version: 1 Type: Bass Tab 0 ratings
1 star 2 stars 3 stars 4 stars 5 stars
comments

Synthetic Bass Tab

   
#-----------------------------------------------------------------------------#
#-- File created with Instab - http://www.pconline.com/~smcarey/instab.html --#
#-----------------------------------------------------------------------------#

Author/Artist: Spineshank
Title: Synthetic
Album: The Height Of Callousness
Transcribed by: Michael B.
Email: the_gamer73@hotmail.com

Tuning (from bottom up): Db, A, D, G

Chorus x2
light Verse x4
Verse x4
Bridge x1
Chorus x2
light Verse x4
Verse x4
Bridge x1
Chorus x2
Bridge x1
Harder Bridge x4
light Verse x4
Bridge x2
Chorus x4
Outro

------------------------------------------------------------------------------
------------------------------------------------------------------------------
------------------------------------------------------------------------------
------------------------------------------------------------------------------
-11111-33-4-4444-33-----------------------------------------------------------
--------------------4-444444444444444-----------------------------------------
 (chorus)                                                                     

------------------------------------------------------------------------------
------------------------------------------------------------------------------
------------------------------------------------------------------------------
------------------------------------------------------------------------------
------------------------------------------------------------------------------
-1111-0000--------------------------------------------------------------------
 (play extremely soft, you can barely make it out)                            
[ Tab from: http://www.guitartabs.cc/tabs/s/spineshank/synthetic_btab.html ]
------------------------------------------------------------------------------
------------------------------------------------------------------------------
------------------------------------------------------------------------------
------------------------------------------------------------------------------
------------------------------------------------------------------------------
-333-0-1-1-1-1----------------------------------------------------------------
 (verse)                                                                      

------------------------------------------------------------------------------
------------------------------------------------------------------------------
------------------------------------------------------------------------------
------------------------------------------------------------------------------
-3-3-2-7-777------------------------------------------------------------------
------------------------------------------------------------------------------
 (bridge) chorus verse bridge chorus bridge harder bridge chorus outro        

------------------------------------------------------------------------------
------------------------------------------------------------------------------
------------------------------------------------------------------------------
------------------------------------------------------------------------------
-333333-222222-777777---------------------------------------------------------
------------------------------------------------------------------------------
 (harder bridge)                                                              

----------------x3|-----------------------------------------------------------
------------------|-----------------------------------------------------------
------------------|-----------------------------------------------------------
------------------|-----------------------------------------------------------
------------------|-----------------------------------------------------------
-333-03-0-1-1-1-1-|-333-03-0-1-1-1-121----------------------------------------
 (outro)           (end with)     

Comments