Spineshank - Smothered Chords & Tabs

 

Smothered Chords & Tabs

Spineshank Chords & Tabs

Version: 4 Type: Tab 0 ratings
1 star 2 stars 3 stars 4 stars 5 stars
comments

Smothered Tab

   
 Spineshank
 Smothered

 By Jozo

 Drop C:
 C G C F A D

 Intro:

 D---------------------------------------------------------------|
 A---------------------------------------------------------------|
 F---------------------------------------------------------------|
 C---------------------------------------------------------------|
 G--5-5-3h5--------5-5-3h5--------5-5-3h5--------5-5-1-----------|
 C--5-5-3h5--------5-5-3h5--------5-5-3h5--------5-5-1-----------|


 ----------------------------------------------------------------|
 ----------------------------------------------------------------|
 ----------------------------------------------------------------|
 ----------------------------------------------------------------|
 ---5-5-3h5--------5-5-3h5--------5-5-3h5--------0---1-----------|
 ---5-5-3h5--------5-5-3h5--------5-5-3h5--------0---1-----------|

 Verse:

 --------------------------------------|
 --------------------------------------|
 ----0-0-3-3-3-3-2-2-5-5-5-5-3-3-7-7---| x2
 --------------------------------------|
 --------------------------------------|
 --------------------------------------|
 PM  . . . . . . . . . . . . . . . .


 ----------------------------------------------------|
 ----------------------------------------------------|
 --------3-3-3-3-----3-3-3-3-----3-3-----3-3-3-3-----|
 ----1-1---------1-1---------1-1---------------------|
 ------------------------------------3-3---------3-3-|
 ----------------------------------------------------|
 PM  . . . . . . . . . . . . . . . . . . . . . . . .


 1st time             2nd time
 ---------------------   ----------------|
 ---------------------   ----------------|
 ---3-3-3-3-----3-3---   3-3-3-3---------|
 ---------------------   ----------------|
 -----------3-3-------   --------3-3-3-3-|
 ---------------------   ----------------|
 PM . . . . . . . .

 Bridge A:
[ Tab from: http://www.guitartabs.cc/tabs/s/spineshank/smothered_tab_ver_4.html ]
 ----------------------------------------|
 -7b~~~~~~~~~--5h7-5h7b~~~~~~~~~---5h7-5-|
 ----------------------------------------|
 ----------------------------------------|
 ----------------------------------------|
 ----------------------------------------|
 ----------------------------------------|

 1st time                           2nd time
 -----------------------------  ----------------------------|
 -----7-----7-------5-----5---  -----10-----10---------7----|
 -8-------8---8-5-------5---5-  -8--------8----8---5------5-|
 -----------------------------  ----------------------------|
 -----------------------------  ----------------------------|
 -----------------------------  ----------------------------|


 Chorus:

 --------------------------------------------|
 --------------------------------------------|
 -------14------------------10---------5-----|
 --5-5-----------------8-8--10----3-3--5-----|
 --5-5--12-------------8-8--8-----3-3--3-----|
 --5-5-----------------8-8--8-----3-3--3-----|


 Bridge B:

 ------------------------------------------------------------------------|
 ------------------------------------------------------------------------|
 --------------------------3-3--------------------------5-5-5-5----------|
 --5-5-5-5-5-5-5-5-1-1-1-1-3-3-3-3------5-5-5-5-5-5-5-5-5-5 5-5-3-3-3-3--|
 --5-5-5-5-5-5-5-5-1-1-1-1-1-1-3-3------5-5-5-5-5-5-5-5-3-3-3-3-3-3-3-3--|
 --5-5-5-5-5-5-5-5-1-1-1-1-----3-3------5-5-5-5-5-5-5-5---------3-3-3-3--|

 Bridge C:

 ---------------------------------     -----------------|
 -x-x-------x-x-------------------     -----------------|
 -x-x-------x-x------------------- 2x  -----------------|
 -x-x-------x-x-------------------     -1-1-1-1-3-3-3-3-|
 -x-x-------x-x-------------------     -1-1-1-1-3-3-3-3-|
 ---------------------------------     -1-1-1-1-3-3-3-3-|


 Ending:

 ----------------|
 ----------------|
 ----------------|
 --5-5-----------|
 --5-5-----------|
 --5-5-----------|

 Play these parts in this order:

 Intro      2x
 Verse      2x
 Bridge A   1x
 Chorus     4x
 Intro      1x
 Verse      2x
 Bridge A   1x
 Chorus     4x
 Bridge B   2x
 Bridge C   1x
 Chorus     4x
 Bridge B   2x
 Intro      1x
 Ending     1x
Comments