Spineshank - Smothered Chords & Tabs

 

Smothered Chords & Tabs

Spineshank Chords & Tabs

Version: 3 Type: Tab 0 ratings
1 star 2 stars 3 stars 4 stars 5 stars
comments

Smothered Tab

   
Here's the intro to the song, I'm pretty sure it's about 99.9% correct or so. I'll have
the whole song up soon, I also put the verse in along with the inro.

Spineshank - Smothered
Tuning Drop-D (DADGBE)

(Main Riff)
[ Tab from: http://www.guitartabs.cc/tabs/s/spineshank/smothered_tab_ver_3.html ]
Alternate between (A) and (B)
(A)                                     (B)
E|--------------------------------------|---------------------------------|
B|--------------------------------------|---------------------------------|
G|--------------------------------------|---------------------------------|
D|--3-3-0-3-0-3-3-0-3-0-3-3-0-3-3-3-0-1-|-3-3-0-3-0-3-3-0-3-0-3-0-3-0-0-1-|
A|--3-3-0-3-0-3-3-0-3-0-3-3-0-3-3-3-0-1-|-3-3-0-3-0-3-3-0-3-0-3-0-3-0-0-1-|
D|--3-3-0-3-0-3-3-0-3-0-3-3-0-3-3-3-0-1-|-3-3-0-3-0-3-3-0-3-0-3-0-3-0-0-1-|

(Verse)

Repeate (A) and after repeating several times, play (B) twice
(A)Play with light phaser and Palm Mute(B)Play with medium phasers; no p.m.
E|--------------------------------------|----------------------------------|
B|--------------------------------------|----------------------------------|
G|--------------------------------------|----------------------------------|
D|-----7-7-----9-9---7------------------|-----7-7---7-7---7----------------|
A|-7-7-------7-----7--------------------|-7-7-----7-----7------------------|
D|--------------------------------------|----------------------------------|


Cheers
Comments