Spineshank - Smothered Chords & Tabs

 

Smothered Chords & Tabs

Spineshank Chords & Tabs

Version: 1 Type: Tab 0 ratings
1 star 2 stars 3 stars 4 stars 5 stars
comments

Smothered Tab

Use Drop D tuning   DADGBE

Smothered by Spineshank
Tabbed by Ste Foy  (insultme13@hotmail.com)
Email me or add me to msn if u have any questions

Intro
----------------------------------------------------------------------|
----------------------------------------------------------------------|
----------------------------------------------------------------------|
----------------------------------------------------------------------|
-3-3-x-x-x-1-3-3-x-x-x-1-3-3-x-x-x-1-3-3-1----------------------------|
-3-3-x-x-x-1-3-3-x-x-x-1-3-3-x-x-x-1-3-3-1----------------------------|

-----------------------------------------------------------|
-----------------------------------------------------------|
-----------------------------------------------------------|
-----------------------------------------------------------|
-3-3-x-x-x-1-3-3-x-x-x-1-3-3-x-x-x-0-1---------------------|
-3-3-x-x-x-1-3-3-x-x-x-1-3-3-x-x-x-0-1---------------------|

Im not sure about he verse but the chorus is...

------0-----------------------------------------|
------4-----------------------------------------|
------------------------------------------------|
------------------------------------------------|
-3-3----x-x-6-6--1-1----------------------------|
-3-3----x-x-6-6--1-1----------------------------|

Then play the intro again, then another verse, then, when he sings 'i win never win'
[ Tab from: http://www.guitartabs.cc/tabs/s/spineshank/smothered_tab.html ]
---------------------------------------------------------|
---------------------------------------------------------|
---------------------------------------------------------|
---------------------------------------------------------|
-3-3-3-3-1-1-0-0-3-3-3-3-6-6-1-1-------------------------|
-3-3-3-3-1-1-0-0-3-3-3-3-6-6-1-1-------------------------|

Then an interlude then the chorus again

------0-----------------------------------------|
------4-----------------------------------------|
------------------------------------------------|
------------------------------------------------|
-3-3----x-x-6-6--1-1----------------------------|
-3-3----x-x-6-6--1-1----------------------------|

Then
---------------------------------------------------------|
---------------------------------------------------------|
---------------------------------------------------------|
---------------------------------------------------------|
-3-3-3-3-1-1-0-0-3-3-3-3-6-6-1-1-------------------------|
-3-3-3-3-1-1-0-0-3-3-3-3-6-6-1-1-------------------------|   anoher 4 times

Then teh intro again another 2 times

----------------------------------------------------------------------|
----------------------------------------------------------------------|
----------------------------------------------------------------------|
----------------------------------------------------------------------|
-3-3-x-x-x-1-3-3-x-x-x-1-3-3-x-x-x-1-3-3-1----------------------------|
-3-3-x-x-x-1-3-3-x-x-x-1-3-3-x-x-x-1-3-3-1----------------------------|

-----------------------------------------------------------|
-----------------------------------------------------------|
-----------------------------------------------------------|
-----------------------------------------------------------|
-3-3-x-x-x-1-3-3-x-x-x-1-3-3-x-x-x-0-1---------------------|
-3-3-x-x-x-1-3-3-x-x-x-1-3-3-x-x-x-0-1---------------------|

Then it finishes. I think thats pretty much it, its sounds good enough.
Listen to the song for rhythm.
Comments