Spineshank - Play God Chords & Tabs

 

Play God Chords & Tabs

Spineshank Chords & Tabs

Version: 1 Type: Tab 0 ratings
1 star 2 stars 3 stars 4 stars 5 stars
comments

Play God Tab

   
#----------------------------------PLEASE NOTE--------------------------------#
#This file is the author's own work and represents their interpretation of the#
#song. You may only use this file for private study, scholarship, or research.#
#-----------------------------------------------------------------------------#

Author/Artist: Spineshank
Title: Play God
Album: The Height Of Callousness
Transcribed by: CerberuS (aka Kris Bain)
Email: black_caffeine@hotmail.com

A pretty easy song to play.

Tuning: Drop D

e > e
B > B
G > G   ( > = becomes)
D > D
A > A
e > D

To Help Everyone out there I've put in the Cd Timing of when each riff starts
for the First time (approx).

Note: There is no guitar playing during the Verse of this song. If There is 
then its very quiet and I couldn't hear it :D
[ Tab from: http://www.guitartabs.cc/tabs/s/spineshank/play_god_tab.html ]
(CD Time 0:03) Introduction and Chorus
------------------------------------------------------------------------------
------------------------------------------------------------------------------
------------------------------------------------------------------------------
-12--12--0--0--8--8--10-10-10-10----------------------------------------------
-12--12--0--0--8--8--10-10-10-10----------------------------------------------
-12--12--0--0--8--8--10-10-10-10----------------------------------------------
                                                                              

(CD Time 0:29) Riff A
------------------------------------------------------------------------------
------------------------------------------------------------------------------
------------------------------------------------------------------------------
--8--7--0--0--0--0--0--8--7--8--7--0--0--0--7--8--10--------------------------
--8--7--0--0--0--0--0--8--7--8--7--0--0--0--7--8--10--------------------------
--8--7--0--0--0--0--0--8--7--8--7--0--0--0--7--8--10--------------------------
        pm pm pm pm pm             pm pm pm                                   

(CD Time 0:48) Riff B
------------------------------------------------------------------------------
------------------------------------------------------------------------------
------------------------------------------------------------------------------
--8/7r0-----8/7r0---7--8--10--------------------------------------------------
--8/7r0-----8/7r0---7--8--10--------------------------------------------------
--8/7r0-----8/7r0---7--8--10--------------------------------------------------

I'll put the order in which the riffs are played later...

Any Questions Comments.. E-mail me

Stay HaRdCoRe!!!!!

CerberuS
(KriS)
Comments