Spineshank - Newdisease Chords & Tabs

 

Newdisease Chords & Tabs

Spineshank Chords & Tabs

Version: 1 Type: Tab 1 rating
1 star 2 stars 3 stars 4 stars 5 stars
comments

Newdisease Tab

new disease by:spineshank
this is 100% accurate. i play it with the cd all of the time and it is perfect
e------------------------------------------
b------------------------------------------
g-------4---3------------------------------
d---3---2---1---6--------------------------
a---1-----------4--------------------------
e------------------------------------------
let the chords ring and repeat until verse
e------------------------------------------
b------------------------------------------
g------------------------------------------
d---3-3-3-3----3-3-3-3---------------------
a---1-1-1-1----1-1-1-1---------------------
e------------------------------------------
repeat until slight change then play this
e------------------------------------------
b------------------------------------------
g------------------------------------------
d---3-3-3-3--1-2-1-2---3-3-3-3--1-2-1-2----
a---1-1-1-1------------1-1-1-1-------------
e------------------------------------------
play this with the chords more defined and the single notes lighter


the first part is the same as the corus and everything is just repeated
[ Tab from: http://www.guitartabs.cc/tabs/s/spineshank/newdisease_tab.html ]
Comments