Spineshank - New Disease Chords & Tabs

 

New Disease Chords & Tabs

Spineshank Chords & Tabs

Version: 5 Type: Bass Tab 0 ratings
1 star 2 stars 3 stars 4 stars 5 stars
comments

New Disease Bass Tab

~~~~~~~~~~~~~~~~~~~~~~Spineshank~~~~~~~~~~~~~~~~~~~~~~

~~~~~~~~~~~~~~~~~~~~~~New Disease~~~~~~~~~~~~~~~~~~~~~

new desease 
by: Zack Anderson
gb_packers152004@hotmail.com

Intro
G|--------------------------------------------|
D|--------------------------------------------|
A|---10----8-----6-----4----6-----8-----6-----|
E|-8-----6-----4-----2-----4-----6-----4------|

Verse 1       X2
G|-----------------------------|
D|-----------------------------|
A|----3------3------3------3---|
E|-00-----00-----00-----00-----|

Chorus
G|-------------------------------------------------|
D|-------------------------------------------------|
A|---10----8-----6-----4----6-----8------6-----4---|
E|-8-----6-----4-----2-----4-----6-----4-----2-----|

[ Tab from: http://www.guitartabs.cc/tabs/s/spineshank/new_disease_btab_ver_5.html ]
Verse 2      X2
G|-----------------------|-------------------------------------|
D|-----------------------|-------------------------------------|
A|-----4-------4------4--|-----4-3------4-3------4-3------4-3--|
E|-1-1-----1-1-----11----|-1-1------1-1------1-1------1-1------|

Chorus
G|-------------------------------------------------|
D|-------------------------------------------------|
A|---10----8-----6-----4----6-----8------6-----4---|
E|-8-----6-----4-----2-----4-----6-----4-----2-----|


Verse 3                                      x2
G|-----------------------------------|---------------------|
D|------------------5------5------5--|---------------------|
A|----5------5-----------------------|--44-6/7-1--33-5/6-1-|
E|-33-----33-----33-----33-----33----|---------------------|

Chorus
G|-------------------------------------------------|
D|-------------------------------------------------|
A|---10----8-----6-----4----6-----8------6-----4---|
E|-8-----6-----4-----2-----4-----6-----4-----2-----|

Outro
G|--------------------------|
D|--------------------------|
A|--------------------------|
E|-6--5--4--4--3--2--1--1---|

All done easy rite....
Comments