Spineshank - Malnutrition Chords & Tabs

 

Malnutrition Chords & Tabs

Spineshank Chords & Tabs

Version: 1 Type: Tab 0 ratings
1 star 2 stars 3 stars 4 stars 5 stars
comments

Malnutrition Tab

   
Artist - Spineshank
Song - Malnutrition
Album - The Height of Callousness

Tuning: (Low to High) - A E A D G B

Intro
|-----------------------------------------|
|-----------------------------------------|
|-----------------------------------------|
|--1-2-6-5-5-5----------------------------|
|--1-2-6-5-5-5----------------------------|
|--1-2-6-5-5-5----------------------------|

Verse
|-----------------------------------------|
|-----------------------------------------|
|--7-8-8-7-8-8-7-8------------------------|
|-----------------------------------------|
|--5-6-6-5-6-6-5-6------------------------|
|-----------------------------------------|
[ Tab from: http://www.guitartabs.cc/tabs/s/spineshank/malnutrition_tab.html ]
Chorus
|-----------------------------------------|
|-----------------------------------------|
|-----5-----6-----5-----------------------|
|--3--5--3--6--2--5--1-1-1-1-1-1-1-1------|
|--3--3--3--4--2--3--1-1-1-1-1-1-1-1------|
|--3-----3-----2-----1-1-1-1-1-1-1-1------|

Break part
|--------------------------------------------|
|--------------------------------------------|
|--------------------------------------------|
|--1-1-1-1-1-1-1-4-6-8--1-1-1-1-1-1-1-4-6-8--|
|--------------------------------------------|
|--------------------------------------------|


Mix partial [With wah-wah]
|--------------------------------------------|
|--------------------------------------------|
|--------------------------------------------|
|--1-1-1-1-1-1-1-4-6-8--1-1-1-1-1-1-1-4-6-8--|
|--1-1-1-1-1-1-1-4-6-8--1-1-1-1-1-1-1-4-6-8--|
|--1-1-1-1-1-1-1-4-6-8--1-1-1-1-1-1-1-4-6-8--|


tab taken from http://snap.to/spineshank
Comments