Spineshank - Intake Chords & Tabs

 

Intake Chords & Tabs

Spineshank Chords & Tabs

Version: 1 Type: Tab 0 ratings
1 star 2 stars 3 stars 4 stars 5 stars
comments

Intake Tab

Band: SpineShank 
Song: Intake 
Tabbed by: gothichild_666
 
Tuning: Tune down 1.5 steps and drop d 
 
Intro/Verse: 
|----------------------------------------------| 
|----------------------------------------------| 
|----------------------------------------------| 
|----------------------------------------------| 
|----------------------------------------------| 
|--1--3--1--0-----0--0--0--3--3--3--3--3--3--3-| 
 
Chorus 
|----------------------------------------| 
|----------------------------------------| 
|----------------------------------------| 
|--------------0-----------------------3-| 
|--0--1--3--1--------0--0--3--3--3--3----| 
|--0--1--3--1--------0--0--3--3--3--3----| 
 
Mid  (open your hand...) 
|------------------------------------------| 
|------------------------------------------| 
|------------------------------------------| 
|-------------------3-------------------3--| 
|---0-------1-------1---0-------1-------1--| 
|---0-------1-----------0-------1----------| 
 
Mid cont. 
|---------------------------------------| 
|---------------------------------------| 
|---------------------------------------| 
|--7-7-7-7--8-7-7-7-7-7-7-7-8-7-/10-----| 
|--5-5-5-5--6-5-5-5-5-5-5-5-6-5-/ 8-----| 
|---------------------------------------| 
  
Mid cont (If You Could Open...) 
|----------------------------------| 
|----------------------------------| 
|----------------------------------| 
|----------------------------------| 
|----------------------------------|

Sorry I didn't finish, didn't have time, Im at school, Ill finish this tomorrow...
[ Tab from: http://www.guitartabs.cc/tabs/s/spineshank/intake_tab.html ]
Comments