Spineshank - Beginning Of The End Chords & Tabs

 

Beginning Of The End Chords & Tabs

Spineshank Chords & Tabs

Version: 2 Type: Tab 0 ratings
1 star 2 stars 3 stars 4 stars 5 stars
comments

Beginning Of The End Tab

   
BEGINNING OF THE END
TUNING: A#, F, A#, D#, G, C
the chorus of this song is played all on 3rd chords.If practice for a while it
shouldn't be a problem. on the verses i would use a line6 delay modeler pedal on
the sweep echo mode. good luck.
intro/chorus

---------------------------------------------------------------------------|
-33333333--5-5-5--6-6-6-6-6-6-6--10-10-10-10-10-10-10-10--5-5-5--6-6-6-6-6-|
-22222222------------------------------------------------------------------|
-00000000--3-3-3--5-5-5-5-5-5-5--8--8--8--8--8--8--8--8---3-3-3--5-5-5-5-5-|
-00000000------------------------------------------------------------------|
-00000000------------------------------------------------------------------|
verse (let ring)
----------------------------------------------------------------------------|
----------------------------------------------------------------------------|
---7-----------7-------- 5--------------------------------------------------|
---------------5---------3--------0-----------------------------------------|
---5-----------5---------3--------0-----------------------------------------|
---0-----------5---------3--------0-----------------------------------------|

pre chorus
-----------------------------------------------------------------------------|
-----------------------------------------------------------------------------|
-----------------------------------------------------------------------------|
-------------------3--------------------------3----------------------------8-|
-1-0--0-0---1-0--0-0------1-0--0-0--1-0--0-0--3-----------5-5--5-5--5-5--5-5-|
-1-0--0-0---1-0--0-0------1-0--0-0--1-0--0-0--3-----------5-5--5-5--5-5--5-5-|
[ Tab from: http://www.guitartabs.cc/tabs/s/spineshank/beginning_of_the_end_tab_ver_2.html ]
----------------------------------------------------------------------------|
----------------------------------------------------------------------------|
----------------------------------------------------------------------------|
----------------------5-----------------------3-------------------------5---|
--5-5--5-5--5-5--5-5--5------3-3--3-3--3-3--3-3-----3-3--3-3--3-3--3-3--5---|
--5-5--5-5--5-5--5-5--5------3-3--3-3--3-3--3-3-----3-3--3-3--3-3--3-3--5---|

----------------------------------------------------------------------------|
----------------------------------------------------------------------------|
----------------------------------------------------------------------------|
-------------------3------------------------------3-------------------------|
-1-0--0-0---1-0--0-0----------1-0--0-0--1-0--0-0--3-------------------------|
-1-0--0-0---1-0--0-0----------1-0--0-0--1-0--0-0--3-------------------------|

bridge
-----------------------------------------------------------------------------|
-----------------------------------------------------------------------------|
-----------------------------------------------------------------------------|
-----------------------------------------------------------------------------|
-------5-5------5-5----0------3-3--5-5--3-3--5-5----5-5--5-5--5-5--5-5--5--5-|
--0-0------0-0-------0-0------3-3-------3-3---------5-5--5-5--5-5--5-5--5--5-|

----------------------------------------------------------------------------|
----------------------------------------------------------------------------|
----------------------------------------------------------------------------|
------------------------7--7------------------------------------------------|
--8-8--8-8--8-8--8-8----7--7------------------------------------------------|
--8-8--8-8--8-8--8-8----7--7------------------------------------------------|

transition
----------------------------------------------------------------------------|
----------------------------------------------------------------------------|
----------------------------------------------------------------------------|
----------------------------------------------------------------------------|
--1--0--0-0--1-0--0---------------------------------------------------------|
--1--0--0-0--1-0--0---------------------------------------------------------|

ENDING IS SAME CHORDS AS CHORUS PLAYED SLIGHTLY OFF TEMPO.

This is guaranteed to be 100% correct
Comments