Spineshank - Asthmatic Chords & Tabs

 

Asthmatic Chords & Tabs

Spineshank Chords & Tabs

Version: 1 Type: Tab 0 ratings
1 star 2 stars 3 stars 4 stars 5 stars
comments

Asthmatic Tab

   
Hope this is alright for you it is only the third song i've tabbed.
     tuning:low to high(c# f# b e g# c#)

intro(part1)
c#---------------------------------------------------------
g#---------------------------------------------------------
e----------------------------------------------------------
b----------------------------------------------------------
f#-2-2-2-2-2-2-2-0-play-------4-4-4-4-4-4-6-6-6-6-6-6-6----
c#-2-2-2-2-2-2-2-0-3-times----4-4-4-4-4-4-6-6-6-6-6-6-6----

Intro (part2)
c#---------------------------------------------------------
g#---------------------------------------------------------
e----------------------------------------------------------
b--2-2-2-2-2-2-2-0-play-------4-4-4-4-4-4-6-6-6-6-6-6-6----
f#-2-2-2-2-2-2-2-0-3-times----4-4-4-4-4-4-6-6-6-6-6-6-6----
c#-2-2-2-2-2-2-2-0------------4-4-4-4-4-4-6-6-6-6-6-6-6----

verse
c#---------------------------------------------------------
g#---------------------------------------------------------
e----------------------------------------------------------
b--------------------------------------4-4-4-4-4-4-6-6-6-6-
f#-2-x-x-x-x-x-2-x-x-x-x-x-2-x-x-x-x-x-4-4-4-4-4-4-6-6-6-6-
c#-2-x-x-x-x-x-2-x-x-x-x-x-2-x-x-x-x-x-4-4-4-4-4-4-6-6-6-6-

interlude-this is very faint but there is some guitaring going on so just lightly 
strum it or turn the volume down
[ Tab from: http://www.guitartabs.cc/tabs/s/spineshank/asthmatic_tab.html ]
c#---------------------------------------------------------
g#---------------------------------------------------------
e--9~~~~~-11~~~~~~-5~~~~~~-7~~~~~~-------------------------
b--x-------x-------x-------x-------------------------------
f#-7~~~~~-9~~~~~~~-3~~~~~~-5~~~~~~-------------------------
c#---------------------------------------------------------
Chorus                                                   
c#---------------------------------------------------------
g#---------------------------------------------------------
e----------------------------------------------------------
b--2-2-2-0-2-2-3/2--2-2-2-5-5-5-5-7-7-7-7/2----------------
f#-2-2-2-0-2-2-3/2--2-2-2-5-5-5-5-7-7-7-7/2----------------
c#-2-2-2-0-2-2-3/2--2-2-2-5-5-5-5-7-7-7-7/2----------------

It starts to build up a bit then goes into these octaves use tremelo picking
c#---------------------------------------------------------
g#---------------------------------------------------------
e--7777777777777777-999999999999999999999-1111111111111111-
b--xxxxxxxxxxxxxxxx-xxxxxxxxxxxxxxxxxxxxx--x-x-x-x-x-x-x-x-
f#-5555555555555555-777777777777777777777--9-9-9-9-9-9-9-9-
c#---------------------------------------------------------

Intro(part1) x1
Intro(part2) x2
verse x2
interlude x2
Intro(part2) x2
verse x2
interlude x2
chorus x4
last part x8
Chorus x4
Intro (part1) x1
Intro(part2) x1
Interlude x2
Chorus x7
it might be abit off but it sounds alright with the cd.
Comments