Spinal Tap - Tonight Im Gonna Rock You Tonight Chords & Tabs

 

Tonight Im Gonna Rock You Tonight Chords & Tabs

Spinal Tap Chords & Tabs

Version: 2 Type: Bass Tab 0 ratings
1 star 2 stars 3 stars 4 stars 5 stars
comments

Tonight Im Gonna Rock You Tonight Bass Tab

Artist: Spinal Tap
Title: Tonight Im Gonna Rock You Tonight
Album: From The album 'This Is Spinal Tap' (Film Soundtrack)
Tuning: Standard
Bassist: Harry Shearer AKA Derek Smalls
Tabbed By: Steven Elmslie (maidenslayer)

This song on this site and on others that ive found were wrong that's why ive decided
to tab it myself, this song is excellent despite Spinal Tap not being a real band! This
is the best tab for this song that you will find, im not sure if he plays it exactly
like this, but this sounds perfect anyway. Listen and play along to the song to get the
correct timing.


G|------------------------------|
D|------------------------------|
A|------------------3-----5-0-0-|  x3
E|-3/-5-5--3-0-0--3---3-0-------|

Enter along with drums after guitar.

G|---------------------------------------------|
D|---------------------------------------------|
A|-3h5-5-5-5-----------------------------------|  x1
E|------------0h1-1-1-1--3h5-5-5-5-5-5-5-5-5-5-|


G|---------------------------------------------------|
D|---------------------------------------------------|
A|-3h5-5-5-5-------------------------7-7-7-7-7-7--12-|  x1
E|------------0h1-1-1-1--7-7-7-7-7-7-----------------|

The last note IS a 12 NOT a 1 and a 2.



G|------------------------------|
D|------------------------------|
A|------------------3-----5-0-0-|  x2
E|-3/-5-5--3-0-0--3---3-0-------|


G|---------------------------------------------|
D|---------------------------------------------|
A|-3h5-5-5-5-----------------------------------|  x1
E|------------0h1-1-1-1--3h5-5-5-5-5-5-5-5-5-5-|


G|---------------------------------------------------|
D|---------------------------------------------------|
A|-3h5-5-5-5-------------------------7-7-7-7-7-7--12-|  x1
E|------------0h1-1-1-1--7-7-7-7-7-7-----------------|

The last note IS a 12 NOT a 1 and a 2.

[ Tab from: http://www.guitartabs.cc/tabs/s/spinal_tap/tonight_im_gonna_rock_you_tonight_btab_ver_2.html ]
G|-------------------------------------------------------------------------|
D|-----------------0-----------------0-----------------0-----------------0-|
A|-0-0-0-0-0-0-0-0---0-0-0-0-0-0-0-0---0-0-0-0-0-0-0-0---0-0-0-0-0-0-0-0---|
E|-------------------------------------------------------------------------|
                  x2

G|----------------------------------------------------------------------------------|
D|----------------------------------------------------------------------------------|
A|-0-0-0-3--0-0-0-3--0-0-0-3--0-0-0-3--0-0-0-3--0-0-0-3--0-0-0-3--0-3-5-5-5-5-5-5-5-| X2
E|----------------------------------------------------------------------------------|


G|-----------------|
D|-----------------|
A|-5-3-0---5-3-----|  x1
E|-------3------5\-|

Bass Fill (above)


G|--R--|------------------------------|
D|--E--|------------------------------|
A|--S--|------------------3-----5-0-0-|  x3
E|--T--|-3/-5-5--3-0-0--3---3-0-------|


Bass enters during middle of guitar trill.


G|---------------------------------------------|
D|---------------------------------------------|
A|-3h5-5-5-5-----------------------------------|  x1
E|------------0h1-1-1-1--3h5-5-5-5-5-5-5-5-5-5-|


G|---------------------------------------------------|
D|---------------------------------------------------|
A|-3h5-5-5-5-------------------------7-7-7-7-7-7--12-|  x1
E|------------0h1-1-1-1--7-7-7-7-7-7-----------------|

The last note IS a 12 NOT a 1 and a 2.


G|------------------------------|
D|------------------------------|
A|------------------3-----5-0-0-|  x2
E|-3/-5-5--3-0-0--3---3-0-------|


G|---------------------------------------------|
D|---------------------------------------------|
A|-3h5-5-5-5-----------------------------------|  x1
E|------------0h1-1-1-1--3h5-5-5-5-5-5-5-5-5-5-|


G|--------------|
D|-----2h3--5h7-|
A|-3h5----------|  x1
E|--------------|


G|-----------------------------------------------|END
D|-----------------------------------------------|END
A|-1-1-1-1-1-1-1-1-1-1-1-1-1-1-1-1-1-1-1-----1-0-|END
E|-----------------------------------------------|END


That's it, the whole tab. An excellent Song by an unreal band. Please rate.

Comments