Spinal Tap - Tonight Im Gonna Rock You Tonight Chords & Tabs

 

Tonight Im Gonna Rock You Tonight Chords & Tabs

Spinal Tap Chords & Tabs

Version: 1 Type: Bass Tab 0 ratings
1 star 2 stars 3 stars 4 stars 5 stars
comments

Tonight Im Gonna Rock You Tonight Bass Tab

   
#----------------------------------PLEASE NOTE---------------------------------#
#This file is the author's own work and represents their interpretation of the #
#song. You may only use this file for private study, scholarship, or research. #
#------------------------------------------------------------------------------##
From: Glen Norman Pavan 

artist:  Spinal Tap
title:  Tonight I'm Gonna Rock You Tonight
album:  This Is Spinal Tap
key:  C/a
tuning:  standard  E A D G

intro/main riff

G----------------------------------------------------------|
D----------------------------------------------------------|
A---------------------3-----3-0-0--------------------------|
E--3-5-5---5-0-0----3---3-1--------------------------------|

play four times


verse

    (C)(D) Little girl, it's A (E)(F)great but there's
    (A) only one of me
    (C)(D) You can't touch cause I cost too much but


chorus

     (B)Tonight I'm gonna rock you (Tonight I'm gonna rock you)
     (E)Tonight I'm gonna rock you (Tonight I'm gonna rock you)


main riff 2X


second verse
[ Tab from: http://www.guitartabs.cc/tabs/s/spinal_tap/tonight_im_gonna_rock_you_tonight_btab.html ]
     You're sweet, but you're just four feet
     And you still got your baby teeth
     You're too young and I'm too well hung but

chorus

interlude


G-------------------------------------------------------------------------|
D------------------------------------0----------------------------------0-|
A--0-0-0-0-0-0-0-0-----0-0-0-0-0-0-0----0-0-0-0-0-0-0-0---0-0-0-0-0-0-0---|
E-------------------------------------------------------------------------|


main riff 4X


third verse


     You're hot to take all we've got
     Not a dry seat in the house
     Next day we'll be on our way, but

chorus

main riff 4X

outro

    (C)(D)  Little girl, it's A (E)(F)great big world
    but there's (A) only one of


G------------------------------------------------|
D------------------------------------------------|
A-0-0-0-0---3-5----------------------------------|
E-----------------------0-1--------3-5-----------|

G------------------------------------------------------|
D------------------------------------------------------|
A---1-1-1-1-1-1-1-1-1-1-1-1-1-1-1-1-1-1-1-------1-0----|
E------------------------------------------------------|


questions, comments, feedback to senomar@bach.udel.edu
               -I'm here, I'm queer, I play 5-string bass
Comments