Spinal Tap - Tonight Im Gonna Rock You Chords & Tabs

 

Tonight Im Gonna Rock You Chords & Tabs

Spinal Tap Chords & Tabs

Version: 2 Type: Bass Tab

Tonight Im Gonna Rock You Bass Tab

Very easy plays almost the same thing the whole song very close to the intro except the verse

  Intro
---------------|--------------|----------------------------------|
---------------|--------------|----------------------------------|  x4
----0-0--------|---3----3-0-0-|----------------------------------|
--3-----3-0-0--|-3--3-1-------|----------------------------------|
Verse
----------------------|--------------------|-2--2-2-2-2-2-2------|
----------------------|-3-3----3-3-3-3-3-3-|---------------------|
--3-5-----5-5-5-5-5-5-|--------------------|---------------------|
----------------------|--------------------|---------------------|

2-2-2-2-2-2-2-2-|-----------------|---------------|---------------|
----------------|-----------------|-3--3-3-3-3-3-3|---------------|
----------------|-5---5-5-5-5-5-5-|---------------|2--2-2-2-2-2-2-|
----------------|-----------------|---------------|---------------|
[ Tab from: http://www.guitartabs.cc/tabs/s/spinal_tap/tonight_im_gonna_rock_you_btab_ver_2.html ]
---------------|-----------------|-------------------------------|
---------------|--2--2-2-2-2-2-2-|--2--2-2-2-2-2-2---------------|
-2--2-2-2-2-2-2|-----------------|-------------------------------|
---------------|-----------------|-------------------------------|
Chorus
---------------------------------------------------------------------|
---------------------------------------------------------------------|   x2
----0--0-0-0-0-0----------------------3-3---------3-0-0-0-0-0-0-0----|
--3---------------3-0--0-0-0-0-0---3-3----3-3-1-1--------------------|

------------------|--------------------|--------------------------|
------------------|--------------------|--------------------------|  x4
-0--0-0-0-0-0-0-0-|-0-0-0-0-0-0-0-0-0--|--------------------------|
------------------|--------------------|--------------------------|
Outro
------------------|-------------------------|---------------------|
------------------|-------------------------|---------------------|
------------------|-------------------------|---------------------|  x2
-5--5-5--5-5-5-5-5|-5-5-5---5-5-5---5-5-5--3|---------------------|

--------------------------------------------|----------------------|
--------------------------------------------|----------------------|
-3--6--5---5-5-5---5-5-5-5---5-5-5-5---3-2-1|--3-2-1-0-------------|
--------------------------------------------|----------------------|

For the first part of the chorus he plays the same as the intro just adds a little more  
i did other then that it should be perfect
 any complaints dont email me because i couldnt care less