Spinal Tap - Tonight Im Gonna Rock You Chords & Tabs

 

Tonight Im Gonna Rock You Chords & Tabs

Spinal Tap Chords & Tabs

Version: 1 Type: Bass Tab 0 ratings
1 star 2 stars 3 stars 4 stars 5 stars
comments

Tonight Im Gonna Rock You Bass Tab

   
Spinal Tap - Tonight I'm Gonna Rock You Tonight
Tabbed By: Daniel Fitzpatrick
EMail: theunintended@hotmail.com

visit   www.thenewmatics.co.uk  for my bands website, we cover 
this song and the tab is perfect!!

Album:  This Is Spinal Tap
Tuning:  standard  E A D GIntro/main riff x 4

G----------------------------------------------------------
D----------------------------------------------------------
A---------------------3-----3-0-0--------------------------
E--3-5-5---3-0-0----3---3-1--------------------------------First verse

    (C)(D) Little girl, it's a (E)(F)great but there's 
    (A) only one of me
    (C)(D) You can't touch cause I cost too much but


Chorus

     (B)Tonight I'm gonna rock you (Tonight I'm gonna rock you)
     (E)Tonight I'm gonna rock you (Tonight I'm gonna rock you)


main riff x2


Second verse

     You're sweet, but you're just four feet
     And you still got your baby teeth
     You're too young and I'm too well hung but


Chorus


Interlude
[ Tab from: http://www.guitartabs.cc/tabs/s/spinal_tap/tonight_im_gonna_rock_you_btab.html ]
G---------------------------------------
D------------------------------------0--
A--0-0-0-0-0-0-0-0-----0-0-0-0-0-0-0----  x 3
E--------------------------------------- 

G---------------------------------------
D---------------------------------------
A--0-0-0-0-0-0-0-0-----0-0-0-0-0-0-0-0--  x 7
E--------------------------------------- 
  

Main riff x5


Third verse

     
     You're hot to take all we've got 
     Not a dry seat in the house
     Next day we'll be on our way, but


Chorus


Main riff X2


Outro

    (C)(D)  Little girl, it's a (E)(F)great big world
    but there's (A) only one of 
   

G----------------------------------------------
D---------------------------------------------
A-0-0-0-0---3-5--------------------------------
E-----------------------0-1--------3-5----------

G---------------------------------------------------
D---------------------------------------------------
A---1-1-1-1-1-1-1-1-1-1-1-1-1-1-1-1-1-1-1-------1-0
E-----------------------------------------------------


Contact me at theunintended@hotmail.com
the tab is perfect!!
ENJOY
Comments