Spinal Tap - Stonehenge Chords & Tabs

 

Stonehenge Chords & Tabs

Spinal Tap Chords & Tabs

Version: 1 Type: Tab 0 ratings
1 star 2 stars 3 stars 4 stars 5 stars
comments

Stonehenge Tab

Spinal tap - Stonehenge
Tabbed By: Simon Lecouffe
EMail: What_u_talkin_bout_foo@msn.com
 Lead guitar tabs

Hey, this is the first tab I ever created. It sounds pretty good. 
Spinal tap is the best movie Iíve ever seen in my entire life. 
Iíve looked all over the net, but couldnít find Stonehenge anywhere. 
So I decided to make it myself. If youíre just learning to play tabs, 
this song is super easy to play. Play slowly at first, youíll eventually get it.Intro


E:--12--9--1--9--6----5---3--------------------------------
B:--------------------1---------------------------------------
G:--------------------------------3--3--4--6--4-------------             x2
D:-------------------------------------------------4--3--2--1
A:-------------------------------------------------------------
E:-------------------------------------------------------------


Chorus


E:--13--16--14--11--12--16--18--15--12--13
B:-------------------------------------------------
G:-------------------------------------------------
D:-------------------------------------------------
A:-------------------------------------------------
E:-------------------------------------------------


E:--13--16--14--11--12------------------------
B:-------------------------------------------------
G:-------------------------------------------------
D:-------------------------------------------------
A:-------------------------------------------------
E:-------------------------------------------------

(little solo)

E:------------------------------------------------
B:--------------------------14--15--13--11--13
G:--14--15--13--11--13-----------------------
D:------------------------------------------------
A:------------------------------------------------
E:------------------------------------------------

E:--14--15--13--11--13----------------------------
B:--------------------------14--15--16--17--16--14
G:-----------------------------------------------------
D:-----------------------------------------------------
A:-----------------------------------------------------
E:-----------------------------------------------------

E:-----------------------------------------------------
B:--------------------------14--15--13--11--13----
G:--14--15--13--11--13----------------------------
D:-----------------------------------------------------
A:-----------------------------------------------------
E:-----------------------------------------------------Chorus (cont.)

E:--13--16--14--11--12--16--18--15--12--13
B:-------------------------------------------------
G:-------------------------------------------------
D:-------------------------------------------------
A:-------------------------------------------------
E:-------------------------------------------------

[ Tab from: http://www.guitartabs.cc/tabs/s/spinal_tap/stonehenge_tab.html ]
E:--13--16--14--11--12-------------------------
B:-------------------------------------------------
G:-------------------------------------------------
D:-------------------------------------------------
A:-------------------------------------------------
E:-------------------------------------------------

Nigel starts singing:

E:------------------------------------------------
B:--14--15--16--17--16--15--14\13/14------
G:------------------------------------------------
D:------------------------------------------------
A:------------------------------------------------
E:------------------------------------------------

E:------------------------------------------------
B:------------------------------------------------
G:------------------------------------------------
D:------------------------------------------------
A:--2--3--4---4--4--3--------------------------
E:--------------4--4--3--------------------------

E:------------------------------------------------
B:--14--15--16--17--16--15--14\13/14------
G:------------------------------------------------
D:------------------------------------------------
A:------------------------------------------------
E:------------------------------------------------Start playing the solo again when David screams.

E:--------------------------------------------------
B:---------------------------14--15--13--11--13
G:--14--15--13--11--13-------------------------
D:--------------------------------------------------
A:--------------------------------------------------
E:--------------------------------------------------

E:--14--15--13--11--13-------------------------
B:---------------------------14--16--17--16--14
G:-------------------------------------------------
D:-------------------------------------------------
A:-----------------------------------------------------------
E:------------------------------------------------------------

E:-------------------------------------------------------------
B:--------------------------14--15--13--11--13------------
G:--14--15--13--11--13------------------------------------
D:-------------------------------------------------------------
A:-------------------------------------------------------------
E:--------------------------------------------------------------


I donít know how to play the part when the midgets are dancing, 
so make it up yourself.

Outro

E:--12--9--1--9--6-----5--3---------------------------------
B:---------------------1---------------------------------------
G:---------------------------------3--3--4--6--4-------------
D:--------------------------------------------------4--3--2--1
A:--------------------------------------------------------------
E:--------------------------------------------------------------


Thatís Stonehenge. Itís really easy to play. Donít rush through it. 
All you have to do is play along with the song . Good luck!!!
Comments