Spinal Tap - Sex Farm Chords & Tabs

 

Sex Farm Chords & Tabs

Spinal Tap Chords & Tabs

Version: 2 Type: Tab 0 ratings
1 star 2 stars 3 stars 4 stars 5 stars
comments

Sex Farm Tab

Song:       Sex Farm
Artist:     Spinal Tap
Tabbed By:  Darrell Harvey

I tabbed this song kind of quick, so if you have any questios or complaints,
email me at DHarvey@acad2.dana.edu.

Rythem Guitar
|----------------------------|
|----------------------------|
|-----------5/2---7----9/5-2-|
|-5-7-7-5-7-5/2---7--7-9/5-2-|
|-5-7-7-5-7-3/0---5--7-7/3-0-|
|-3-5-5-3-5----------5-------|
    
Lead Guitar
|------------------------------------------------------|
|------------------------------------------------------|
|-12h14~~----------------------------------------------|
|------------14-12b---14-12----------10-12b-12-10------|
|---------------------------10-10-12--------------12---|
|------------------------------------------------------|

|-------------------------------------|
|----------1-----------------4-3-1----|
|--0-0-2-0---0-2p0---0-0-2-0-------2--|
|-------------------------------------|
|-------------------------------------|
|-------------------------------------|


Not sure about the next part
but somthin like this

|---------------------------|
|---------------------------|
|------------0h2h3/4-5------|
|-0h2h3/6-7-----------------|
|---------------------------|
|---------------------------|

Then back to this

|-------------------------------------|
|----------1-----------------4-3-1----|
|--0-0-2-0---0-2p0---0-0-2-0-------2--|
|-------------------------------------|
|-------------------------------------|
|-------------------------------------|

Then the fill again
|-----------------------|
|-----------------------|
|------------0h2h3/4-5--|
|-0h2h3/6-7-------------|
|-----------------------|
|-----------------------|

Now the Rythem Guitar changes
|---------------------------------------------|
|---------------------------------------------|
|-2-777-4-2--2-777-4-2--2-777-4-2--2-777-2-4--|
|-2-777-4-2--2-777-4-2--2-777-4-2--2-777-2-4--|
|-0-555-2-0--0-555-2-0--0-555-2-0--0-555-0-2--|
|---------------------------------------------|

|---------------------------------------|
|---------------------------------------|
|-4-999-7-4--4-999-7-4--4-9---44444444--|
|-4-999-7-4--4-999-7-4--4-9---44444444--|
|-2-777-5-2--2-777-5-2--2-7---22222222--|
|---------------------------------------|
			      pppppppp
		              mmmmmmmm	

Then Lead Guitar back to this

|-------------------------------------|
|----------1-----------------4-3-1----|
|--0-0-2-0---0-2p0---0-0-2-0-------2--|
|-------------------------------------|
|-------------------------------------|
|-------------------------------------|
[ Tab from: http://www.guitartabs.cc/tabs/s/spinal_tap/sex_farm_tab_ver_2.html ]
Then the fill again
|---------------------------|
|---------------------------|
|------------0h2h3/4-5------|
|-0h2h3/6-7-----------------|
|---------------------------|
|---------------------------|

Oragan plays 

Then the fill again
|---------------------------|
|---------------------------|
|------------0h2h3/4-5------|
|-0h2h3/6-7-----------------|
|---------------------------|
|---------------------------|

Now the Rythem Guitar again
|---------------------------------------------|
|---------------------------------------------|
|-2-777-4-2--2-777-4-2--2-777-4-2--2-777-2-4--|
|-2-777-4-2--2-777-4-2--2-777-4-2--2-777-2-4--|
|-0-555-2-0--0-555-2-0--0-555-2-0--0-555-0-2--|
|---------------------------------------------|

|---------------------------------------|
|---------------------------------------|
|-4-999-7-4--4-999-7-4--4-9---44444444--|
|-4-999-7-4--4-999-7-4--4-9---44444444--|
|-2-777-5-2--2-777-5-2--2-7---22222222--|
|---------------------------------------|
			      pppppppp
		              mmmmmmmm

Rythem Guitar goes back to this
|----------------------------|
|----------------------------|
|-----------5/2---7----9/5-2-|
|-5-7-7-5-7-5/2---7--7-9/5-2-|
|-5-7-7-5-7-3/0---5--7-7/3-0-|
|-3-5-5-3-5----------5-------|

Lead Guitar
|---------------------------------------------------|
|---------------------------------------------------|
|-12h14~~-------------------------------------------|
|------------------10-12b-12-10-------10-12b-10-----|
|------------10h12--------------12-12-----------12--|
|---------------------------------------------------|

|-------------------------------------|
|----------1-----------------4-3-1----|
|--0-0-2-0---0-2p0---0-0-2-0-------2--|
|-------------------------------------|
|-------------------------------------|
|-------------------------------------|

Then the fill is played a little differently
|------------------------------------------|
|------------------------------------------|
|--0h2h3/4-5-------------------------------|
|------------0h2h3/6-7--0h2h3/4-5----------|
|---------------------------------0h2h3h4--|
|------------------------------------------|

Rythem Guitar
|-----|
|-----|
|--4--|
|--4--|
|--2--|
|-----|

Lead Guitar Outro Solo
|-------------------------------------------------------------|
|-----8-------------------------------------------------------|
|-------7b----5b-5b-5b--3-------------------------------------|
|-7h9---------------------5-3------ I get lost and improvise -|
|-----------------------------5----- through here. -----------|
|-------------------------------------------------------------|
Comments