Spinal Tap - Heavy Duty Chords & Tabs

 

Heavy Duty Chords & Tabs

Spinal Tap Chords & Tabs

Version: 1 Type: Tab 0 ratings
1 star 2 stars 3 stars 4 stars 5 stars
comments

Heavy Duty Tab

   
#----------------------------------PLEASE NOTE---------------------------------#
#This file is the author's own work and represents their interpretation of the #
#song. You may only use this file for private study, scholarship, or research. #
#------------------------------------------------------------------------------#
Date: Wed, 12 Jul 1995 06:24:41 -0700
From: nasta@ix.netcom.com (John Nasta)
Subject: upload heavy_duty.tab by Spinal Tap
"Heavy Duty" from the album "This is Spinal Tap."

Key: s=stretched ss=slow stretch (either before or after hitting note)
^=hammer-on, pull-off, or slur notes into each other

Intro (Play 4 times)
----------------------------
-----1-----------1-s3^3-1---
-0^2---0^2---0^2----------2-
----------------------------
-----------3----------------
----------------------------

Verse 1 (Play same as intro 3 times)

F# (2 counts)   G (2 counts)A (4 counts OR 1 count + fill 1)
Why waste good music on a brain?

Fill 1 (during A chord)
-----------------------------
-----------1-----------------
-------0^2---2^0-------------
---0^2-----------2^0---------
-3-------------------3^0-----
-------------------------3^0-

E (2 counts)  G (2 counts) F# (2 counts) F     G  
[ Tab from: http://www.guitartabs.cc/tabs/s/spinal_tap/heavy_duty_tab.html ]
Fill 2
-----------------|---------------------------|
-----------1-----|---------------------1-----|
-------0^2---2-2-|-----0^2-2-2-----0^2---2-0-|
---0^2-----------|-0^2---------0^2-----------|
-3---------------|---------------------------|
-----------------|---------------------------|

E (2 counts)  G (2 counts) F# (2 counts)  F    G     E


Fill 3
-12^15^12----12-s15-s15-
----------15------------
------------------------
------------------------
------------------------
------------------------

Intro (2 times)

Verse 2 (Play same as intro 3 times)


E (2 counts)  G (2 counts) F# (2 counts) F     G  A
Heavy (Heavy) Duty (Duty)   Heavy duty    rock n roll (play fill 2)
E (2 counts)  G (2 counts) F# (2 counts)  F    G     E
Heavy (Heavy) Duty (Duty)  brings out the duty in my soul

-------------|-------------------------------|
-s15-s15-s15-|-------------------------------|
-------------|-Main solo (you figure it out)-|
-------------|-------------------------------|
-------------|-------------------------------|
-------------|-------------------------------|

Verse 3 (accapella with fills)
--------------
-s3^3-1----1--
--------2-----
--------------
--------------
--------------

---------------------------
-s3^3-1---s3^3-1-------1ss- 

*********************************************************************************************************
Comments