Spin Doctors - Two Princes Chords & Tabs

 

Two Princes Chords & Tabs

Spin Doctors Chords & Tabs

Version: 4 Type: Tab 0 ratings
1 star 2 stars 3 stars 4 stars 5 stars
comments

Two Princes Tab

spin doctors
two princes (solo)

this solo is not hard at all. just listen to the song and get the
solo part in your head. i've been playing guitar for a about two 
months now and i can play it perfectly. madd easy to play and madd 
fun to play. enjoy


E |----------------------------|---------------------|-----------------------
B |----------------------------|---------------------|-----------------------
G |----------------------------|---------------------|-----------------------
D |------0-0-0--3b--0-0-0------|--0-0-0-0-0--3b------|--0-0-0-0--3b--0-5-0-7-
A |--/5--------------------/5--|-----------------/5--|-----------------------
E |----------------------------|---------------------|-----------------------

E |------------------------------|-------------------------------------|
B |------------------------------|-------15--(0)--12--12--12--15--12b--|
G |--5p0--5--5--7--7\------------|-------------------------------------|
D |--------------------12-14p12--|--14b--------------------------------|
A |------------------------------|-------------------------------------|
E |------------------------------|-------------------------------------|

E |--------------------------------------|----------------------------------|
B |--------------12b--13--12-------------|----------------------------------|
G |--14--14--14---------------14---------|----------------------------------|
D |---------------------------------14b--|--12-12-12--------------12--------|
A |--------------------------------------|------------14-14-14-14------14b--|
E |--------------------------------------|----------------------------------|
[ Tab from: http://www.guitartabs.cc/tabs/s/spin_doctors/two_princes_tab_ver_4.html ]
E |---------------------------------------|----------------------------------
B |---------------------------------------|------15---------15---------------
G |---------------------------------12----|--14b-----12-14b----14-12---12-14b
D |----------------------12--14p12----12--|--------------------------14------
A |--14b-12-0-0-10-12/14------------------|----------------------------------
E |---------------------------------------|-----------------------------------|

E |-------------------------------------------------|
B |-------------------------------------------------|
G |--14-13-12-10b-----------------------------------|
D |---------------12-10--------------------------12-|
A |---------------------12-11-10-9----------(5)/----|
E |--------------------------------10-(10)\---------|

E |------------------------------------|--------------------------------|
B |------------------------------------|-17-------------------------17b-|
G |-------12----12-14-12-14b----12-16b-|----16-14----14-14----14-14-----|
D |-14-12----14------------------------|----------16-------16-----------|
A |------------------------------------|--------------------------------|
E |------------------------------------|--------------------------------|

E |-15--------------------------------|-----------------------------------|
B |-----17--15-------15----------17b--|-17b--17b--17b--17b--17b--15h17p15-|
G |-------------16b-----16---14-------|-----------------------------------|
D |-----------------------------------|-----------------------------------|
A |-----------------------------------|-----------------------------------|
E |-----------------------------------|-----------------------------------|
Comments