Spin Doctors - Two Princes Chords & Tabs

 

Two Princes Chords & Tabs

Spin Doctors Chords & Tabs

Version: 1 Type: Bass Tab 0 ratings
1 star 2 stars 3 stars 4 stars 5 stars
comments

Two Princes Bass Tab

Two Princes
Spin Doctors
Tabbed by Jesse
Bleepo2@hotmail.com

[ Tab from: http://www.guitartabs.cc/tabs/s/spin_doctors/two_princes_btab.html ]
Verse
g-------------------------------------
d-------------------------------------
a--5-5-5--5-2-2-2--2------------------
e--------------------5-5-5--5--3-3-3-3

Chorus
g-----------
d--3-----3--
a-----5-----
e----------5

that's about all. enjoy

Comments