Spin Doctors - More Than She Knows Chords & Tabs

 

More Than She Knows Chords & Tabs

Spin Doctors Chords & Tabs

Version: 2 Type: Tab 0 ratings
1 star 2 stars 3 stars 4 stars 5 stars
comments

More Than She Knows Tab

   
#----------------------------------PLEASE NOTE---------------------------------#
#This file is the author's own work and represents their interpretation of the #
#song. You may only use this file for private study, scholarship, or research. #
#------------------------------------------------------------------------------##
From: beaur@aol.com (BeauR)

 More than She Knows.
Spin Doctors

I have included the chords and some lyrics above the staffs to help follow
along.  The chords in the bridge section are arrpegiated,  so this
transcription is a best guess in terms of the exact notes in that part .
Otherwise it should be accurate. 

During the Harmonica solo the Song changes key to C so the progression is 
C F G instead of G C D. It is basically the same part as the intro but in
the new key. 

In Rhythm Figure 1 he plays the little lick every other time through the
pattern. 

(Intro: Play 4 Times)                                                     
              

     G                                C                         D
|-------------------------------------2---2-------------|
|-------------------------1-----------3---3-------------|
|--------0------------------0---------2---2-------------|
|-----0-----3--2--0-----------2-------0---0------------|
|----------------------3--------------------------------|
|--3----------------------------------------------------|

(Rhythm Figure 1 Repeat as necessary)
 
I know she got everything she want 

     G               C              A7                            (Little
Lick)
|---------------------6-6-6-6--6-6-6-------------------|
|---------------------5-5-5-5--5-5-5-------------------|
|---------------------5-5-5-5--5-5-5----0-2(B)3(P)0----|
|--------------2--5-------------------------------------|
|-----2--5--33-----------------------------------------|
|--33--------------------------------------------------|

I know she got everything she need
     G               C              A7                                    
                   
|---------------------6-6-6-6--6-6-6-6-----------------|
|---------------------5-5-5-5--5-5-5-5-----------------|
|---------------------5-5-5-5--5-5-5-5-----------------|
|--------------2--5------------------------------------|
|-----2--5--33-----------------------------------------|
|--33--------------------------------------------------|
[ Tab from: http://www.guitartabs.cc/tabs/s/spin_doctors/more_than_she_knows_tab_ver_2.html ]
I know she needs me                                 more than she knows   
   G                  C             A7
|---------------------6-6-6-6--6-6-6-------------------|
|---------------------5-5-5-5--5-5-5-------------------|
|---------------------5-5-5-5--5-5-5---0-2(B)3(P)0-----|
|--------------2--5---5-5-5-5--5-5-5-------------------|
|-----2--5--33-----------------------------------------|
|--33--------------------------------------------------|

(Bridge)
      She come on so          sweet and kind,  
    C                                          D
|-----------------------------------2-------------------|
|------------1--------------------------3---------------|
|--------------0----------------2-----------2-----------|
|------2--------2-----------0-------------------0-------|
|----3------------3-------------------------------------|
|-------------------------------------------------------|

      I wonder if I'm          on her mind
     C                                         D
|-----------------------------------2-------------------|
|------------1--------------------------3---------------|
|--------------0----------------2-----------2-----------|
|------2--------2-----------0-------------------0-------|
|----3------------3-------------------------------------|
|-------------------------------------------------------|

       She always                       Turns away                
     C                                         D
|-----------------------------------2-------------------|
|------------1--------------------------3---------------|
|--------------0----------------2-----------2-----------|
|------2--------2-----------0-------------------0-------|
|----3------------3-------------------------------------|
|-------------------------------------------------------|

 I know I'll get her       one of these days
   C (Palm Mute)          D                                               
          
|-------------------2-2-2-2---------------------------|
|-------------------3-3-3-3---------------------------|
|---0-0-0-0---------2-2-2-2--------------------------|
|---2-2-2-2---------0-0-0-0--------------------------|
|---3-3-3-3-------------------------------------------|
|-----------------------------------------------------|

(Harmonica Solo,  Key Change) Repeat as necessary  
  C                                  F                         G
|---------------------1--1-----------3--3-------------|
|-------1-------------1----1---------3--3-------------|
|-----0-----3-2-0-----2------2-------4--4-------------|
|----------------------3--------------5--5-------------|
|--3---------------------------------------------------|
|------------------------------------------------------|


Comments