Spin Doctors - How Could You Want Him Chords & Tabs

 

How Could You Want Him Chords & Tabs

Spin Doctors Chords & Tabs

Version: 1 Type: Tab 0 ratings
1 star 2 stars 3 stars 4 stars 5 stars
comments

How Could You Want Him Tab

   
#----------------------------------PLEASE NOTE---------------------------------#
#This file is the author's own work and represents their interpretation of the #
#song. You may only use this file for private study, scholarship, or research. #
#------------------------------------------------------------------------------##
From: beaur@aol.com (BeauR)

How Could You Want Him
(When You know you could have me)
By Spin Doctors
Transcribed by Beau Roberts

Notes:
This transcription, although not perfect or totally complete, should be
pretty accurate for all of the main parts of the song and should get you
up and running on this song pretty quickly.
The rhythm and timing of the chorus and verse parts are very tricky so
you'll have to practice along with the CD to get it. 
Also I have transcribed the verse rhythm guitar using the chord positions
that Eric Shenkman uses but there are other positions that you can play it
at. Try playing the G barr chord at the 10th fret. If you then lift up the
barr and fret the 12th fret at the D string and the 11th fret at the G
string you'll have the D chord. Then if you throw your pinky onto the 13th
fret of the B string while playing the G barr chord you'll get the Gsus4.

The guitar solo is based on a Gstring drone pattern. So for each note in
the melody you fret the note and then pulloff to the open G string and
then play the open G one more time. 
Like this: 2(P)0-0. 

In the outro pattern  you simply let the G chord ring then play the little
melody , then finish with the end part of the verse guitar part. This
repeats a bunch of times.


(Intro Riff:Repeat as necessary)

  G

|----3-------------3-----3-|----3-----------3------3---|
|-------3------3-------3---|------3------3------3------|
|-0---------4-------2------|-0------4--------2---------|
|--------------------------|----------------------------|
|--------------------------|----------------------------|
|--------------------------|----------------------------|


Chorus:

|------------------------|------------------------------|
|-------10------/10-8---|-----8------/10-8-------------|
|----10---10---------10-|---6---6---------10-----------|
|-8----------8-----------|-7------7---------------------|
|------------------------|------------------------------|
|------------------------|------------------------------|


|------------------------|------------------------------|
|-------10------/10-8---|-----8------/10-8-------------|
|----10---10---------10-|---6---6---------10-----------|
|-8----------8-----------|-7------7---------------------|
|------------------------|------------------------------|
|------------------------|------------------------------|


|------------------------|------------------------------|
|-------10------/10-8---|------------------------------|
|----10---10---------10-|--------8-------9-------------|
|-8----------8-----------|-----9-------10---------------|
|------------------------|------------------------------|
|------------------------|--7-------8-------------------|

(Play Intro Riff 4 Times)

Verse Rhythm Guitar-repeat as necessary

[ Tab from: http://www.guitartabs.cc/tabs/s/spin_doctors/how_could_you_want_him_tab.html ]
  G                   D           G                  D       G            
     D
|-7--7-7---7--------7--7-7---7------7--7-7---7--------|
|-8--8-8---8-7------8--8-8---8-7----8--8-8---8-7------|
|-7--7-7---7-7------7--7-7---7-7----7--7-7---7-7------|
|-------------7-----------------7----------------7-----|
|-------------------------------------------------------|
|-------------------------------------------------------|

     G            Gsus4      D
|--7--7-7--8--7-7--------------------------------------|
|--8--8-8--8--8-8--7-7-7-7-----------------------------|
|--7--7-7--7--7-7--7-7-7-7-----------------------------|
|-------------------7-7-7-7-----------------------------|
|-------------------------------------------------------|
|-------------------------------------------------------|

 
(2nd Chorus)

Bridge:

(Guitar solo:)
|-------------------------------------------------------|
|-------------------------------------------------------|
|-2(P)0-0--4(P)0-0--5(P)0-0--7(P)0-0--5(P)0-0--4(P)0-0--|
|-0-----------------------------------------------------|
|-------------------------------------------------------|
|-------------------------------------------------------|


|----------------------|--------------------------------|
|----------------------|--------------------------------|
|-2(P)0-0--9(P)0-0--7--|-2(P)0-0--4(P)0-0--5(P)0-0------|
|-0--------------------|-0------------------------------|
|----------------------|--------------------------------|
|------------------------------------------------------|

|-------------------------------------------------------|
|-------------------------------------------------------|
|-7(P)0-0--5(P)0-0--4(P)0-0--2(P)0-0--5(P)0-0--4--------|
|-------------------------------------------------------|
|-------------------------------------------------------|
|-------------------------------------------------------|

|-------------------------------------------------------|
|-------------------------------------------------------|
|-2(P)0-0--4(P)0-0--5(P)0-0--7(P)0-0--9(P)0-0-10(P)0-0--|
|-0-----------------------------------------------------|
|-------------------------------------------------------|
|-------------------------------------------------------|

|--------------------------------------|----------------|
|--------------------------------------|----------------|
|-12(P)0-0--10(P)0-0--9(P)0-0--7(P)0-0-|----------------|
|--------------------------------------|----------------|
|--------------------------------------|----------------|
|--------------------------------------|----------------|

|-------------------------------------------------------|
|-------------------------------------------------------|
|-12(P)0-0--10(P)0-0--9(P)0-0--7(P)0-0--5(P)0-0--------|
|-------------------------------------------------------|
|-------------------------------------------------------|
|-------------------------------------------------------|

|-------------------------------------------------------|
|-------------------------------------------------------|
|--4(P)0-0--2(P)0-0--4(P)0-0--5(P)0-0--4(P)0-0--2(P)0-0-|
|-------------------------------------------------------|
|-------------------------------------------------------|
|-------------------------------------------------------|

(With Intro Riff:)

(With Verse Rhythm Guitar:)



3rd Chorus

Outro-Repeat to fade:

|-7-----------------7-7-7-8--7-7-----------------------|
|-8----8-7--8-7-8--8-8-8-8--8-8---7-7-7-7--------------|
|-7-----------------7-7-7-7--7-7---7-7-7-7-------------|
|-----------------------------------7-7-7-7------------|
|------------------------------------------------------|
|------------------------------------------------------|

Comments