Spin Doctors - Forty Or Fifty Chords & Tabs

 

Forty Or Fifty Chords & Tabs

Spin Doctors Chords & Tabs

Version: 1 Type: Tab 0 ratings
1 star 2 stars 3 stars 4 stars 5 stars
comments

Forty Or Fifty Tab

   
#----------------------------------PLEASE NOTE---------------------------------#
#This file is the author's own work and represents their interpretation of the #
#song. You may only use this file for private study, scholarship, or research. #
#------------------------------------------------------------------------------#
From: dennis.westlind@svet.lu.se (Dennis Westlind)

Forty or Fifty: Spin Doctors
 
Intro x3

|----------------|----------------|
|-----7-------5--|-------5-5------|
|---------6---4--|-----------4----|
|----------------|-------------3--|
|-0--------------|----------------|
|----------------|----------------|

x1

|-------------5--|----------------|
|-----7-------5--|----------------|
|---------6---4--|----------------|
|----------------|--------------3-|
|-0--------------|----------------|
|----------------|----------------|


(Verse 1:)
A7            Ab7                G7                C

|----------------|----------------|----------------|----------------|
|------9-------8-|----------8-----|-------7-----7--|---5---5-5------|
|----9-----9---8-|------------8---|----------7--7--|---5-------5----|
|-7----------7---|-------7------7-|-5--------------|-------------5--|
|----------------|----------------|----------------|----------------|
|----------------|----------------|----------------|----------------|


F#7                F7              Emb7           A
[ Tab from: http://www.guitartabs.cc/tabs/s/spin_doctors/forty_or_fifty_tab.html ]
|----------------|---5------------|-3--3----3------|----------------|
|-----5----------|---5------------|-3--3----3---2--|------3-2-------|
|---------5------|---5------------|-3--3----3---2--|----------0-----|
|-4-----------3--|----------------|-2--2----2---2--|------------2---|
|----------------|----------------|-------------0--|----------------|
|----------------|----------------|----------------|----------------|

A7          Ab7                   G7             C

|----------------|----------------|----------------|----------------|
|------9-------8-|----------8-----|-------7-----7--|---5------------|
|----9-----9---8-|------------8---|----------7--7--|---5--7-7--5-0--|
|-7----------7---|-------7------7-|-5--------------|----------------|
|----------------|----------------|----------------|----------------|
|----------------|----------------|----------------|----------------|

F#7             F7                Emb7             A      

|----------------|---5------------|-3--3-3/5-5\3---|----------------|
|-----5----------|---5------------|-3--3-3/5-5\3-2-|-(2)--3-2-------|
|---------5------|---5------------|-3--3---------2-|-(2)------0-----|
|-4-----------3--|----------------|-2--2---------2-|-(2)------------|
|----------------|----------------|--------------0-|-(0)--------0-1-|
|----------------|----------------|----------------|----------------|


(Chorus)

(repeat intro riff)

And at the same time as the chorus, another guitar plays this riff over
and over, 6 1/2 times:

|----------------|----------------|
|----------------|-----3-2--------|
|----------------|---0-----0------|
|---0------------|-2--------------|
|-2-------0-2-0--|-----------0-1--|
|-----3-3--------|----------------|



(Verse 2)


There is a solo but I am too lazy to type it all out here, so youÕll
have to figure that out on your own.


Dennis Westlind
Comments