Spill Canvas - Under The Covers Chords & Tabs

 

Under The Covers Chords & Tabs

Spill Canvas Chords & Tabs

Version: 1 Type: Tab 0 ratings
1 star 2 stars 3 stars 4 stars 5 stars
comments

Under The Covers Tab

   
-----------------------------------------------------------------------------
			Under the Covers- The Spill Canvas
-----------------------------------------------------------------------------
Tabbed by: Sean
Email: wings217@hotmail.com

Tuning: EADGBe


Intro/verse upstroke first note
e|---------------------------------------------------------------------------|
B|---------------------------------------------------------------------------|
G|-0-0-0-0----0h2-0-0-0-0-0----0h2-0-2--2-2-2-2-2-2-2-2-2-2------------------|
D|-2-2-2-2-0h2------2-2-2-2-0h2-------2-2-2-2-2-2-2-2-2-2-2------------------|
A|-3-3-3-3----------3-3-3-3-------------0-0-0-0-0-0-0-0-0-0------------------|
E|-0-0-0-0----------0-0-0-0-------------0-0-0-0-0-0-0-0-0-0------------------|

e|-----------------------------------0-------0-------------------------------|
B|------------------0------------------0-------0-----------------------------|
G|-0-0-0-0----0h2-0---2-0----0h2-0-2-----2-2---------------------------------|
D|-2-2-2-2-0h2------------0h2------2-----2-2---------------------------------|
A|-3-3-3-3-------------------------0-----0-0---------------------------------|
E|-0-0-0-0-------------------------------------------------------------------|
[ Tab from: http://www.guitartabs.cc/tabs/s/spill_canvas/under_the_covers_tab.html ]
and I'm bottling up your soft...
e|---------------------------------------------------------------|
B|---------------------------------------------------------------|
G|-0-0-0-0-0-0-0-0-0-0--2-2-2-2-2-2-2-2-2-2----------------------|
D|-2-2-2-2-2-2-2-2-2-2--2-2-2-2-2-2-2-2-2-2----------------------|  x4
A|-3-3-3-3-3-3-3-3-3-3--0-0-0-0-0-0-0-0-0-0----------------------|
E|-0-0-0-0-0-0-0-0-0-0--0-0-0-0-0-0-0-0-0-0----------------------|

pre-chorus
e|------------------------------------|
B|---------0-0------------------------|
G|-----0-0-2-2-0-0-0-0----------------|
D|-2/4-4-4-2-2-2-2-2-2----------------|   x4
A|-----2-2-0-0-3-3-3-3----------------|
E|---------0-0-0-0-0-0----------------|

chorus
e|--------------3-------------                     ---------------------|
B|--0-----0-----3-------------                     ----------0----------|
G|--2-----0-----0--------0h2--    second time play -------0h2-----------|
D|--2-----2-----0-----0h2-----                     ----0h2-----0h2------|
A|--0-----3-----2--0h2--------                     -0h2-----------------|
E|--0-----0-----3-------------                     ---------------------|

This tab has some of the lead guitar in it, only the parts that
can be played with the other guitar, I will tab the rest at a
later date.

| /  slide up
| \  slide down
| h  hammer-on
| p  pull-off
| ~  vibrato
| +  harmonic
| x  Mute note
============================================================================
Comments