Spill Canvas - Tide Chords & Tabs

 

Tide Chords & Tabs

Spill Canvas Chords & Tabs

Version: 3 Type: Tab 0 ratings
1 star 2 stars 3 stars 4 stars 5 stars
comments

Tide Tab

   
----------------------------------------------------------------------------
			     THE TIDE - The Spill Canvas
----------------------------------------------------------------------------

Tabbed by: Quinn
E-mail: Toad333@msn.com

Capo on the second fret.  All chords are relative to capo.

Standard tuning

If you listen to the song you can get the strumming

Intro:

e|-x--|
B|-x--|
G|-x--|  -Muted-
D|-x--|
A|-x--|
E|-x--|

e|-0----0---x---0----0---x---0---0--|
B|-0----0---x---0----0---x---3---1--|
G|-0----0---x---0----0---x---2---0--|  x2
D|-0h2--2---x---0h2--2---x---0---2--|
A|-0h2--2---x---0h2--2---x---0---3--|
E|-0----0---x---0----0---x---x---x--|

Instead of playing the last chord on the 2nd through time you can play this solo...

Solo:

e|------------------------|
B|------------------------|
G|------------------------|
D|---------2p0--4p0--5----|
A|-2\3--3-----------------|
E|------------------------|


Verse:

e|-0----0---x---0----0---x---0---0--|
B|-0----0---x---0----0---x---3---1--|
G|-0----0---x---0----0---x---2---0--|  x6
D|-0h2--2---x---0h2--2---x---0---2--|
A|-0h2--2---x---0h2--2---x---0---3--|
E|-0----0---x---0----0---x---x---x--|
"And there's three...count 'em three...Children playing..."

Pre-Chorus:

e|-0----0--|
B|-3----5--|
G|-2-\--4--|
D|-0-\--2--|
A|-0-\--x--|
E|-x----x--|
"And he can't understand.."

e|-0--|
B|-1--|
G|-0--|
D|-2--|
A|-3--|
E|-x--|
"How everyone.."

e|-0--0--0--|
B|-0--0--0--|
G|-0--0--5--|
D|-5--5--5--|
A|-5--5--3--|
E|-3--2--x--|
"Breathing when true love ends.."

e|-0--x--0--|
B|-0--x--0--|
G|-4--x--4--|
D|-4--x--4--|
A|-2--x--2--|
E|-x--x--x--|
"His mother whispers quietly.."

Chorus:

e|-0--|
B|-0--|
G|-0--|
D|-2--|
A|-2--|
E|-0--|
"Heaven's not a place that you go when you die.."

e|-0--|
B|-1--|
G|-0--|
D|-2--|
A|-3--|
E|-x--|
"It's that moment in life when you.."

e|-0--0--0--|
B|-0--0--1--|
G|-0--0--0--|
D|-5--5--2--|
A|-5--5--3--|
E|-3--2--x--|
"Actually feel alive.."

e|-0---|
B|-0---|
G|-4---|
D|-4---|
A|-2---|
E|-x---|
"So live for the moment.."
[ Tab from: http://www.guitartabs.cc/tabs/s/spill_canvas/tide_tab_ver_3.html ]
e|-0--|
B|-0--|
G|-0--|
D|-2--|
A|-2--|
E|-0--|
"And take this advice, live by everyword.."

e|-0--|
B|-1--|
G|-0--|
D|-2--|
A|-3--|
E|-x--|
"Love is just a hoax so..."

e|-0--0--0--|
B|-0--0--1--|
G|-0--0--0--|
D|-5--5--2--|
A|-5--5--3--|
E|-3--2--x--|
"Forget anything that you have heard..."

e|-0---|
B|-0---|
G|-4---|
D|-4---|
A|-2---|
E|-x---|
"And live for the moment now.."

IF you're playing with a 2nd guitar they can play this in the backround of the chorus

e|---------------------|
B|-5p--6p--8p--6p------|       p= pull off but mute it
G|---------------------|
D|---------------------|
A|---------------------|
E|---------------------|

Fill:

e|-0----0---x--|     |            |-0--|
B|-0----0---x--|     |            |-1--|
G|-0----0---x--|  x2 | then play  |-0--|
D|-0h2--2---x--|     |            |-2--|
A|-0h2--2---x--|     |            |-3--|
E|-0----0---x--|     |            |-x--|


Solo x4

Verse x6
"And there's three...count 'em three...Children growing..."

Pre Chorus x1
"And he can't understand"

Chorus x2
"Heaven's not a place that you go when you die..."

Bridge:

e|--0-------------0--------0----------|
B|--0-------------3--------1----------|
G|--9-------------2--------0----------|  x2
D|--9-------------0--------2----------|
A|--7-------------x--------3----------|
E|--0-------------x--------x----------|

Solo x4

Verse x4
"And there's three...count 'em three...children missing from the beach..."

Bridge x2
"And she didn't even notice or pay much attention as the tide came in and swept her 
into the ocean..."

One chord right before the last chorus:

e|-0--|
B|-1--|
G|-0--|
D|-2--|
A|-3--|
E|-x--|

Chorus x2
"Heaven's not a place that you go when you die..."

Outro:

e|-0----0---|
B|-0----0---|
G|-0----0---|  Don't let it ring
D|-0h2--2---|
A|-0h2--2---|
E|-0----0---|


And that's it.  I think this sounds better than other tabs i've seen, but that's just 
 Awesome song any way you play it.

| /  slide up
| \  slide down
| h  hammer-on
| p  pull-off
| ~  vibrato
| +  harmonic
| x  Mute note
Comments