Spill Canvas - Tide Chords & Tabs

 

Tide Chords & Tabs

Spill Canvas Chords & Tabs

Version: 1 Type: Tab 0 ratings
1 star 2 stars 3 stars 4 stars 5 stars
comments

Tide Tab

Intro/Verse
e|-x-x-----0------0---0----0-----------------------------------------------|
B|-x-x-----0------0---0----0-----------------------------------------------|
G|-x-x-----11-----11--9----7-----------------------------------------------|
D|-x-x-----11-----11--9----7-----------------------------------------------|
A|-x-x-----9------9---7----5-----------------------------------------------|
E|-x-x-0h9-9--0h9-9---7----5-----------------------------------------------|

e|-------------------------------------------------------------------------|
B|-------------------------------------------------------------------------|
G|--------------1p0---0h2--------------------------------------------------|
D|-------0--4\2-----2------------------------------------------------------|
A|-4/5p--------------------------------------------------------------------|
E|-------------------------------------------------------------------------|
[ Tab from: http://www.guitartabs.cc/tabs/s/spill_canvas/tide_tab.html ]
Chorus
guitar 1
e|-0--0-0---0---------------0----------------------0-----------------------|
B|-0--0-0---0---------------0----------------------0-----------------------|
G|-9--9/11--7----------7--6-11--6-----------7---6--11-6--------7--6-6------|
D|-9--9/11--7---7--6---7--6-11--6----7--6---7---6--11-6---7-6--7--6-6------|
A|-7--7/9---5---7--7---5--4-9---4----7--7---5---4--9--4---7-7--5--4-4------|
E|-7--7-9-------5--4--------9--------5--4----------9------5-4--------------|
guitar 2
e|-2p0-0-7p-0-4p0-0-2p0-0-x2--2p0-0-7p0-0-9p0-0-2p0-0---9p0-7p0-4p0-0-2p0--|
B|-------------------------------------------------------------------------|
G|-------------------------------------------------------------------------|
D|----------------------------------------------------x4-------------------|
A|-------------------------------------------------------------------------|
E|-------------------------------------------------------------------------|

solo for guitar
e|--2-4-5-4-2-4-5---2-4-5-7-9-7--2-4-5-4-5-7--2-4-5-9-7-9-7-2---2~---------|
B|-------------------------------------------------------------------------|
G|-------------------------------------------------------------------------|
D|-------------------------------------------------------------------------|
A|-------------------------------------------------------------------------|
E|-------------------------------------------------------------------------|

for the outro its just the same chorus with the solo thingie above but the pull off thing is this:

e|--9p0-0-7p0-0-5p0-0-4p0-2p0-x2--9p0-0-7p0-0-2p0-0-4p0-0-2p0-0-0--a lot---|
B|-------------------------------------------------------------------------|
G|-------------------------------------------------------------------------|
D|-------------------------------------------------------------------------|
A|-------------------------------------------------------------------------|
E|-------------------------------------------------------------------------|
Comments