Spill Canvas - Sunsets And Car Crashes Chords & Tabs

 

Sunsets And Car Crashes Chords & Tabs

Spill Canvas Chords & Tabs

Version: 1 Type: Tab

Sunsets And Car Crashes Tab

   
----------------------------------------------------------------------------
		Sunsets and Car Crashes - The Spill Canvas
----------------------------------------------------------------------------


Tabbed by:MCiccone
Email:McDaddy0945@aol.com

Well i finally found the tab to tab some more songs, and since i seem to have a nag for
SPill Canvas songs I figure I'd do this one, because its my favorite.  Thnx for all the
love on the other tab, ill finish it eventually.

Tuning: Guitar 1: Standard Capo 1st Fret
        Guitar 2: Standard Capo 1st Fret

*If some one tabs this intro i will build a statue for you ;)

Verse 1:

Guitar 1:
    
    Em    G  C
e|--------3----------------|* OK these are the chords for the whole first 
B|--------3--1-------------| first verse, after you play Em you slide to G
G|--------4--0-------------| Therefor, I would play Em with your Pinky and 
D|---2--2/5--2-------------| Ring Finger.
A|---2--2/5--3-------------|
E|--------3----------------| x4
 
Guitar 2 Fills:

e|---------------3-----------------3--------------------------|* Play the 
B|------------------------------------------------------------| fills VERY
G|--------------------------------------0---0-----------------| SOFTLY
D|---------2--------------------2-------4\2-2\0--0h2-0--2-----|
A|------------------------------------------------------2-----|
E|------------------------------------------------------------|

  As we're Sparkling....In The Twilight


e|-----------------3--------------------------------3----------------------|
B|-------------------------------------------------------------------------|
G|-------------------------------------------------------------------------|
D|-----------2------------------------------2-----------4\2-2\0-0h2--------|
A|----------3------------------------------3------------0---0--------------|
E|-------------------------------------------------------------------------|

 And After Three Long Years I Think That We Both Need This

e|-------------------3---------3-----------------|* OK thats the end of the
B|-----------------------------------------------| firse verse.
G|------------------------------------0----0-----|
D|--------------2-----------2---------4\2--2\0---|
A|-----------------------------------------------|
E|-----------------------------------------------|

   So We Seal The Deal...A Kiss


Bridge:

*OK, well this took me forever to Tab and I came across two ways of playing
it, so i decided to post them both, one is harder, one is easier.

First The Hard One:

e|-------------------------------------------------------|* This way sounds
B|-------------------------------------------------------| cooler
G|-------------------------0----0------------------------|
D|--x-x-x-2--x-x-x--/4-2-4--4-4---4-/4-4-4-4h5-5-5-------|
A|--x-x-x-2--x-x-x------------------/3-3-3-3---3-3-------|
E|-------------------------------------------------------|
                   ^Play this 
                    part fast

Easy Version:

e|--------------------------------------------------------|
B|--------------------------------------------------------|
G|-----------------------0----0---------------------------|
D|--x-x-x-2--x-x-x--/4----4-4---4--/4-4-4-4h5-5-5---------|
A|--x-x-x-2--x-x-x-----------------/3-3-3-3---3-3---------|
E|--------------------------------------------------------|
                   ^The Difference
                    is that you hold
                    the slide longer
                    instead of playing
                    2&4

*Regardless of which way you play it, this is a beautiful piece of music,
and both way are about 100 % correct!


Chorus:

e|-----3--------------3------------3-----------3--------3-----------|
B|-----3--------------3------------3-----------3--------3-----------|
G|-----0--------------0------------0-----------0--------0-----------|
D|-----2--------------2------------0-----------0--------2-----------|
A|-----2--------------2h3----------2-----------0--------2h3---------|
E|---------------------------------3-----------2--------------------|

 And In Case You Were Wondering, You Were Like A Sunset To Me. 
 Your All Kinds of Beautiful.... You Sweetly Retire As the Stars Chase You..

Guitar 2:

e|-------------------------------------------------------------------|
B|-------------------------------------------------------------------|
G|---------4/6-4--------4/6--------4/6-4------------------0h2-0------|
D|--------------6-4----------------------6-4-------2-2-0h2-----------|
A|--------------------------------------------2h3-3------------------|
E|-------------------------------------------------------------------|

  And In...

e|----------------------------------3-----------3--------------------------|
B|------------------------------------3-----------3------------------------|
G|---------4/6-4--------4/6-4---------------------------------0h2-0--------|
D|--------------6-4-----------6--------------------------2-0h2-------------|
A|----------------------------------------------------2h3------------------|
E|--------------------------------3------------2---------------------------|

  Your All Kinds...

e|----------------------|* Guitar 2 Ends Chorus here.
B|----------------------|
G|-------------0h2-0----|
D|-----2-2-0h2----------|
A|--2h3-----------------|
E|----------------------|


Bridge 2:

Guitar 1:

e|--------3------------|*Guitar 1 Repeats these Chords over the Fill
B|--------3-1----------|
G|--------4-0----------|
D|--2-2/5-5-2----------|
A|--2-2/5-5-3----------|
E|--------3------------|

Guitar 2:

Fill 1:

e|------------------3----|
B|-----------------------|
G|-----------------------|
D|-----------------------|
A|-----------------------|
E|-----------------------|

Fill 2:

e|-------3----------3-------|
B|---------3----------3-----|
G|--------------------------|
D|--------------------------|
A|-----2----------2---------|
E|--------------------------|

Verse 2:

Guitar 1:

e|---------3----------|
B|---------3--1-------|
G|---------4--0-------|
D|-2--2/5--5--2-------|
A|-2--2/5--5--3-------|
E|---------3----------|

Guitar 2:
[ Tab from: http://www.guitartabs.cc/tabs/s/spill_canvas/sunsets_and_car_crashes_tab.html ]
e|---3--------------3---------------3--------------3-------|*Theres no 
B|-----3------------------------------3--------------------| Guitar 2 in
G|---------------------------------------------------------| the rest of the
D|---------------------------------------------------------| verse
A|-2------------2----------------2--------------2----------|
E|---------------------------------------------------------|

      And I...Notes...    Let The Rain....I'll Be Dead



*Repeat Bridge 1

*Repeat Chorus

Outro:

Guitar 1 Starts With This:

e|-------------------3----3-------3----------3----------------|* This part
B|-------------------0------3-------3--------3----------------| deffinitly
G|-------------------0-----------------------0-----0h2-0------| requires the
D|--2-2-2-2----2-2-2-2-----------------------2-0h2------------| correct 
A|--2-2-2-2-2h3--3-3-3-----------------2h3-3-3----------------| amount of
E|----------------------3-------2-----------------------------| improvision


e|--0----3------3----------3-----------3-----------------|* Remember to 
B|--0----0---------3---------3---------3-----------------| strum chords as 
G|--0----0-----------------------------0----0h2-0--------| many times as 
D|--2----2---------------------------2-2-0h2-------------| neccesary, I did
A|--2--2h3-----------------------2h3-3-3-----------------| not put the  
E|-----------3--------2----------------------------------| amount of strums
                                                           down for each
                                                           chord everytime.


Guitar 2 Plays This Under The Chorus Chords:

e|------------------------------------------------------------|
B|------------------------------------------------------------|
G|-------------0h2-2-2p0-------------------0h2-2-2p0----------|
D|-------0h2-2-----------0-0h2--------0h2-2----------0-0h2----|
A|-2h3-3------------------------2h3-3-------------------------|
E|------------------------------------------------------------|

 And In Case You Were Wondering________________You Were

e|---------------------------------------------------|
B|---------------------------------------------------|
G|-------------0h2-2-2p0-------------------0h2-0-----|
D|-------0h2-2-----------0-0h2------2--0h2-----------|
A|-2h3-3------------------------2h3------------------|
E|---------------------------------------------------|

         Like A Sunset To Me____

e|------------------------------------------------------------|
B|------------------------------------------------------------|
G|-------------0h2-2-2p0-------------------0h2-2-2p0----------|
D|-------0h2-2-----------0-0h2--------0h2-2----------0-0h2----|
A|-2h3-3------------------------2h3-3-------------------------|
E|------------------------------------------------------------|
  
  Your All Kinds Of Beautiful As You End My Day__________

e|--------------------------------------3--3--3------|
B|--------------------------------------3--3--3------|
G|-------------0h2-2-2p0----------------0--0--0------|
D|-------0h2-2-----------0-0h2----------2--2--0------|
A|-2h3-3--------------------------------3--3--2------|
E|---------------------------------------------------|

   And You Sweetly Retire, As The Stars Chase You Away


e|--------------------------------------------3---------------------|
B|--------------------------------------------3---------------------|
G|----4/6--6/8----6/8-8/10--------------------0------0h2-0----------|
D|--------------------------------------------2-0h2-----------------|
A|----------------------------------------2h3-3---------------------|
E|------------------------------------------------------------------|

  And In Case You Were Wondering, You Were Like A Hurricane To Me.


e|-------------------------------------------------------------------------|
B|-------------------------------------------------------------------------|
G|-----4/6-4-------6/8------6\4-4\2-2\0--0h2-0--------------0h2-0----------|
D|--/6---------4h6----------0---0---0-----------------2-0h2----------------|
A|----------------------------------------------2h3------------------------|
E|-------------------------------------------------------------------------|

  Your...But You Center, Now Tell Me This, Do You Know How We'd Meet.

e|-----3----3-3------3----3-3-----3----3-3----3---3-3------3-----3------3--|
B|---------3-3-----------3-3----------3-3--------3-3------3-3---3-3----3-3-|
G|-------------------------------------------------------------------------|
D|--2----------------------------------------------------------------------|
A|---------------3------------------------------------3-------3------3-----|
E|-----------------------------3-----------2-------------------------------|

e|-----3----3-3------3----3-3-----3----3-3----3---3-3------3-----3------|
B|---------3-3-----------3-3----------3-3--------3-3--------------------|
G|----------------------------------------------------------------------|
D|--2-------------------------------------------------------------------|
A|---------------3------------------------------------3-------3---------|
E|-----------------------------3-----------2----------------------------|

  And In Case You Were Wondering You Were Everything, To Me.

Guitar 1:

e|--3--------|*Guitar 1 keeps messing around with this chord, and then ends
B|--3--------| by strumming this chord once.
G|--0--------|
D|--2--------|
A|--2--------|
E|-----------|
  
  To Me...

* Before I go I thought I would show you how to play the chorus with only
 one guitar, and still haveing it sound cool...This is how I play it.

e|--3-----3---3---3--------3-----------------------------------------------|
B|--3-----3---3---3--------3-----------------------------------------------|
G|--0-----0---0---0--------0------0h2-0------------------------------------|
D|--2-----2---0---0--------2--0h2------------------------------------------|
A|--2---2h3---2---0----2h3-3-----------------------------------------------|
E|------------3---2--------------------------------------------------------|

* Thats if you wanna sing it to your girlfriend or something


PEACE I hope you enjoyed it!


| /  slide up
| \  slide down
| h  hammer-on
| p  pull-off
| x  Mute note - (Listen to the song to get a better idea of what this
                  sounds like.)
============================================================================