Spill Canvas - Still Walking After You Chords & Tabs

 

Still Walking After You Chords & Tabs

Spill Canvas Chords & Tabs

Version: 1 Type: Tab 0 ratings
1 star 2 stars 3 stars 4 stars 5 stars
comments

Still Walking After You Tab

   
-----------------------------------------------------------------------------
	      Still Walking After You- The Spill Canvas
-----------------------------------------------------------------------------
Tabbed by: Sean
Email: wings217@hotmail.com

This is a good song. Although I don't know where it came from, I just found it on the 
it's not on the first album or the new one "one fell swoop". It's just Nick Thomas and the 
that sings in 3685. Enjoy!

Tuning: Standard EADGBe

Intro/Verse:
e|----------0-0-0-0-0--0-0-0-----0-0-0-0-0--0-0-0----------------------------|
B|----------0-0-0-0-0--0-0-0-----0-0-0-0-0--0-0-0----------------------------|
G|----------5-5-5-5-5--5-5-5-----5-5-5-5-5--5-5-5----------------------------|
D|----------5-5-5-5-5--5-5-5-----5-5-5-5-5--5-5-5----------------------------|
A|--0h3-3-3-3-3-3-3-3--3-3-3-3-3-3-3-3-3-3--3-3-3----------------------------|
E|---------------------------------------------------------------------------|
        pm.                  pm.

e|------0-0-0-0-0--0-0-----0-0-0-0-0--0-0-0----------------------------------|
B|------0-0-0-0-0--0-0-----0-0-0-0-0--0-0-0----------------------------------|
G|------5-5-5-5-5--5-5-----5-5-5-5-5--5-5-5----------------------------------|
D|------5-5-5-5-5--5-5-----5-5-5-5-5--5-5-5----------------------------------|
A|--0-0----------------0-0---------------------------------------------------|
E|---------------------------------------------------------------------------|
    pm.                pm.
[ Tab from: http://www.guitartabs.cc/tabs/s/spill_canvas/still_walking_after_you_tab.html ]
Pre-chorus:
e|---------------------------------------------------------------------------|
B|---------------------------------------------------------------------------|
G|---------------------------------------------------------------------------|
D|--3-3-3-3-3-3-3-3-5-5-5-5-5-5-5-5-7-7-7-7-5-5-5-5-3-3-3-3-3-3-3-3----------|
A|--3-3-3-3-3-3-3-3-5-5-5-5-5-5-5-5-7-7-7-7-5-5-5-5-3-3-3-3-3-3-3-3----------|
E|--1-1-1-1-1-1-1-1-3-3-3-3-3-3-3-3-5-5-5-5-3-3-3-3-1-1-1-1-1-1-1-1----------|

e|---------------------------------------------------------------------------|
B|---------------------------------------------------------------------------|
G|---------------------------------------------------------------------------|
D|-7-7-7-7-5-5-5-5-3-3-3-3-3-3-3-3-3-3-3-3-3-3-3-3---------------------------|
A|-7-7-7-7-5-5-5-5-3-3-3-3-3-3-3-3-3-3-3-3-3-3-3-3---------------------------|
E|-5-5-5-5-3-3-3-3-1-1-1-1-1-1-1-1-1-1-1-1-1-1-1-1---------------------------|

Chorus/Bridge:
e|---------------------------------------------------------------------------|
B|-----0-0-0-0-0-0-0-0-------------------------------------------------------|
G|-----5-5-5-5-5-5-5-5-------------------------------------------------------|
D|-----5-5-5-5-5-5-5-5-5-5-5-5-5-5-5-5-3-3-3-3-3-3-3-3-3-3-3-3-3-3-3-3-------|
A|-3-3-3-3-3-3-3-3-3-3-5-5-5-5-5-5-5-5-3-3-3-3-3-3-3-3-3-3-3-3-3-3-3-3-------|
E|---------------------3-3-3-3-3-3-3-3-1-1-1-1-1-1-1-1-1-1-1-1-1-1-1-1-------|
   pm.

I feel good about contributing to the supply of Spill Canvas tabs out there, could 
please tab the SONG Sunsets and Car Crashes? Thanks

| /  slide up
| \  slide down
| h  hammer-on
| p  pull-off
| ~  vibrato
| +  harmonic
| x  Mute note
=============================================================================
Comments