Spill Canvas - Lust A Prima Vista Chords & Tabs

 

Lust A Prima Vista Chords & Tabs

Spill Canvas Chords & Tabs

Version: 2 Type: Tab

Lust A Prima Vista Tab

   
-----------------------------------------------------------------------------
		     Lust A Prima Vista - The Spill Canvas
-----------------------------------------------------------------------------

This is the intro and the middle "solo"
i have really hard time figuring out the right chords
and the ones up are wrong so..here i go:

Tuning: Regular EADGBe

Intro (0:01-0:31)
e|----------------------------------------11-11-| (11 is the backround with
B|-------------6---------6---------6------------| some weird fx look for it)
G|---------8-----8---8-----8---8-----8----------| 
D|-------6---6-----6---6-----6---6-----6--------| over and over until the
A|----------------------------------------------| song starts
E|----------------------------------------------|
[ Tab from: http://www.guitartabs.cc/tabs/s/spill_canvas/lust_a_prima_vista_tab_ver_2.html ]
"...But you know it's not true" 
(2:06-2:37)
e|----------------------------------------------|
B|----------------------------------------------|
G|----------------------------------------------|
D|----------------------------------------------|
A|---------------------/7-7-7-7/9-9-9-10/12-----|
E|--0~-0-3-5h7-5-3-0~---------------------------|

e|----------------------------------------------|
B|----------------------------------------------|
G|----------------------------------------------|
D|----------------------------------------------| x2 
A|-------------------/7-7-7-7/5-5-5/3-2---------|
E|--0~-0-3-5h7-5-3-0~---------------------------|

then go right on to this after         this ^

e|--------------------|             e|-------|
B|--------------------|             B|-------|
G|--------------------| "clap clap" G|-------| that's bass but 
D|--------------------|             D|-------| i think the guitar
A|-2h3-2-3-2-3-2-3-2-3|             A|-------| does it too
E|--------------------|             E|---\\12|


and then comes the chorus i'm trying to figure it out
i'll try to post it later
hope it helps!

facundo mundo!

/  slide up
\  slide down
h  hammer-on
~  let ring
=============================================================================