Spill Canvas - Lust A Prima Vista Chords & Tabs

 

Lust A Prima Vista Chords & Tabs

Spill Canvas Chords & Tabs

Version: 1 Type: Tab

Lust A Prima Vista Tab

0:00-):29?.
[ Tab from: http://www.guitartabs.cc/tabs/s/spill_canvas/lust_a_prima_vista_tab.html ]
0:29
---------------------------------------------|
-------------------------------------4-4-4-4-|
-------7-7-5----3------------7-7-5---4-4-4-4-|
--9----7-7-5-3s5-5-3-5--9----7-7-5---2-2-2-2-|
--9----5-5-3------------9----5-5-3-0---------|
--7---------------------7--------------------|

---------------------------------------------|
-------------------------------------4-4-4-4-|
-------7-7-5----3------------7-7-5---4-4-4-4-|
--9----7-7-5-3s5-5-3-5--9----7-7-5---2-2-2-2-|
--9----5-5-3------------9----5-5-3-0---------|
--7---------------------7--------------------|