Spill Canvas - Dutch Courage Chords & Tabs

 

Dutch Courage Chords & Tabs

Spill Canvas Chords & Tabs

Version: 1 Type: Tab 0 ratings
1 star 2 stars 3 stars 4 stars 5 stars
comments

Dutch Courage Tab

Artist:     The Spill Canvas
Title:      Dutch Courage
Album:      One Fell Swoop
Track:      4
Tabbed by:  Natethegreatx21x
Tuning:     Standard

/ - slide up
\ - slide down
h - hammer
p - pull
* - harmonics 

Excellent song from an amazing band!

Any questions, corrections or whatever e-mail me or go to 
www.myspace.com/natebti where you can also check out some of my music.

Might find it easiest to play with 
finger picking style for this part

Verse One:
e|------------------------------------------------|
B|------------------------------------------------|
G|-----3----------3-----------3----------3--------|
D|-----------4----------4-----------4----------4--|
A|--2-----2----------2-----2-----2----------2-----|
E|------------------------------------------------|

e|------------------------------------------------|
B|------------------------------------------------|
G|-----3----------3-----------3----------3--------|
D|-----------4----------4-----------4----------4--|
A|--1-----1----------1-----1-----1----------2-----|
E|------------------------------------------------|

e|------------------------------------------------|
B|------------------------------------------------|
G|-----3----------3-----------3----------3--------|
D|-----------4----------4-----------4----------4--|
A|--2-----2----------2-----2-----2----------2-----|
E|------------------------------------------------|

e|------------------------------------------------|
B|------------------------------------------------|
G|-----3----------3-----------3----------3--------|
D|-----------4----------4-----------4----------4--|
A|--4-----4----------4-----4-----4----------4-----|
E|------------------------------------------------|

Repeat Verse One


Pre-Chorus:

   *might be two guitars but i tabbed it
as one because i can do it, so you can too*

e|---------6-----------------6-------------6------4--|
B|-------4-----------------4-------------2---2----2--|
G|-----6-----(6)-(6)-----6-----(6)-----3----------3--|
D|------------------------------------------------x--|
A|----------------------------------2-------------2--|
E|--4-----------------6------------------------------|
    ^
*try using your 
thumb on that one*


Chorus: 2 Guitars

Guitar 1: 
e|------------------------------------------------|
B|------------------------------------------------|
G|--/8-8-6----------6-----------------------------|
D|---------8--8-6h8---6-4h6p4---------------------|
A|----------------------------4/6-4/6/8-8h9p8--6--|
E|------------------------------------------------|

e|------------------------------------------------|
B|------------------------------------------------|
G|---8-8-6----------6-----------------------------|
D|---------8--8-6h8---6-4h6p4---------------------|
A|----------------------------4/6-4/6--4----------|
E|------------------------------------------------|
[ Tab from: http://www.guitartabs.cc/tabs/s/spill_canvas/dutch_courage_tab.html ]
e|------------------------------------------------|
B|------------------------------------------------|
G|---8-8-6----------6-----------------------------|
D|---------8--8-6h8---6-4h6p4---------------------|
A|----------------------------4/6-4/6/8-8h9p8--6--|
E|------------------------------------------------|
-
e|------------------------------------------------|
B|------------------------------------------------|
G|---8-8-6----------6-----------------------------|
D|---------8--8-6h8---6-4h6p4---------------------|
A|----------------------------4/6-4/6--4----------|
E|------------------------------------------------|



Verse Two: 2 Guitars

Guitar 1:
e|------------------------------------------------|
B|------------------------------------------------|
G|-----3----------3-----------3----------3--------|
D|-----------4----------4-----------4----------4--|
A|--2-----2----------2-----2-----2----------2-----|
E|------------------------------------------------|

e|------------------------------------------------|
B|------------------------------------------------|
G|-----3----------3-----------3----------3--------|
D|-----------4----------4-----------4----------4--|
A|--1-----1----------1-----1-----1----------2-----|
E|------------------------------------------------|

e|------------------------------------------------|
B|------------------------------------------------|
G|-----3----------3-----------3----------3--------|
D|-----------4----------4-----------4----------4--|
A|--2-----2----------2-----2-----2----------2-----|
E|------------------------------------------------|

e|------------------------------------------------|
B|------------------------------------------------|
G|-----3----------3-----------3----------3--------|
D|-----------4----------4-----------4----------4--|
A|--4-----4----------4-----4-----4----------4-----|
E|------------------------------------------------|

Guitar 2:
e|------------------------------------------------------|
B|------------------------------------------------------|
G|------------------------------------------------------|
D|------------------------------------11----------------|
A|--/9-9-9-8-6/8-6/8h9-6--/9-9-9/11-11--11-9/11-9-11-6--|
E|------------------------------------------------------|

Guitar 1 Repeat Verse Two


Pre-Chorus


Chorus


Bridge: 3 Guitars

Guitar 1: capo on 6th chords below relative to capo on 6th
e|--0----0----0----0-----|
B|--0----0----0----0-----|
G|--0----0----0----0-----|  x2
D|--7----5----3----3-----|     let each chord ring out
A|--7----5----3----3-----|   
E|--5----3----1----1-----|

Guitar 1:
e|-----------------------|
B|-----------------------|
G|-----------------------|
D|--7-7--5-5--3-3--3-3---|
A|--7-7--5-5--3-3--3-3---|
E|--5-5--3-3--1-1--1-1---|

Guitar 2: comes in after Guitar 1 plays 2 times
e|--------6--------------6--------------6--------------6--------|
B|----7-----7---7----7-----7---7----6-----6---6----7-----7---7--|
G|--8---8-----8----6---6-----6----4---4-----4----4---4-----4----|
D|--------------------------------------------------------------|
A|--------------------------------------------------------------|
E|--------------------------------------------------------------|

Guitar 3: *Half Step Down*
e|-----*12---|
B|-----*12---|
G|-----*12---|
D|-----*12---|
A|-----------|
E|--0--------|

Guitar 1:
e|--1--|
B|--3--|
G|--2--|
D|--0--|
A|--0--|
E|-----|

Guitar 2:
e|----------------|
B|--9/11-14-9\11--|
G|----------------|
D|----------------|
A|----------------|
E|----------------|


Chorus


 
natethegreatx21x@frontiernet.net
or IM me at natethegreatx21x
Comments