Spill Canvas - All Hail The Heartbreaker Chords & Tabs

 

All Hail The Heartbreaker Chords & Tabs

Spill Canvas Chords & Tabs

Version: 2 Type: Tab

All Hail The Heartbreaker Tab

E---------------------------------------------------------|
B---------------------------------------------------------|
G---------------------------------------------------------| X2
D-------44----444----444----555----555----555-------------| (Intro)
A-------55----555----555----777----777----777-------------| 
E-------33----333----333----333----333----333-------------|
[ Tab from: http://www.guitartabs.cc/tabs/s/spill_canvas/all_hail_the_heartbreaker_tab_ver_2.html ]
E---------------------------------------------------------|
B---------------------------------------------------------|
G---------------------------------------------------------| X4
D-------44----444----444----555----555----555-------------| 
A-------55----555----555----777----777----777-------------| 
E-------33----333----333----333----333----333-------------|


E---------------------------------------------------------|
B---------------------------------------------------------|
G--7--7777--2--2222---------------------------------------| X2
D--7--7777--2--2222--5--5555------------------------------|
A--5--5555--0--0000--5--5555------------------------------|
E--------------------3--3333------------------------------|