Spill Canvas - Aim Snap Fall Chords & Tabs

 

Aim Snap Fall Chords & Tabs

Spill Canvas Chords & Tabs

Version: 1 Type: Tab 0 ratings
1 star 2 stars 3 stars 4 stars 5 stars
comments

Aim Snap Fall Tab

   
-----------------------------------------------------------------------------
			 Aim Snap Fall- The Spill Canvas
-----------------------------------------------------------------------------
Tabbed by: Sean
Email: wings217@hotmail.com

Tuning: EADGBe (standard)

e|-------------------------------------------------------|
B|-----0------------0-----------0-----------0------------|
G|---0---0---0----0---0---0---0---0---0---0---0---0------|
D|-5-------5----4-------4---2-------2---2-------2--------|
A|-7------------5-----------3-----------3----------------|
E|-------------------------------------------------------|

e|---------------------------------------------------------------------------|
B|-----0-----------0-----------0-----------0-------------0-----------0-------|
G|---0---0---0---0---0---0---0---0---0---0---0---0-----0---0---0---0---0---0-|
D|-5-------5---4-------4---2-------2---2-------2---2/4-------4---4-------4---|
A|-7-----------5-----------3-----------3-----------3/5-----------5-----------|
E|---------------------------------------------------------------------------|
[ Tab from: http://www.guitartabs.cc/tabs/s/spill_canvas/aim_snap_fall_tab.html ]
(2nd ending)
e|---------------------------------------------------------------------------|
B|-----0-----------0-----------3-----------3-------------3-----------3-------|
G|---0---0---0---0---0---0---0---0---0---0---0---0-----0---0---0---0---0---0-|
D|-5-------5---4-------4---2-------2---2-------2---2/4-------4---4-------4---|
A|-7-----------5-----------3-----------3-----------3/5-----------5-----------|
E|---------------------------------------------------------------------------|

"and then your siren began to sound..."
e|---------------------------------------------------------------------------|
B|---------------------------------------------------------------------------|
G|---------------------------------------------------------------------------|
D|--5~----5~---------------2~---2~-------------------------------------------|
A|--7~----7~---------------3~---3~-------------------------------------------|
E|---------------------------------------------------------------------------|

"I think I've found my other half..."
e|----------------------------------------------------------------------------|
B|----------------------------------------------------------------------------|
G|----------------------------------------------------------------------------|
D|--5~---5~-----4---------2~---2~---------------------------------------------|
A|--7~---7~-----5---------3~---3~---------------------------------------------|
E|----------------------------------------------------------------------------|


**listen for slight differences in what is played**


| /  slide up
| \  slide down
| h  hammer-on
| p  pull-off
| ~  vibrato
| +  harmonic
| x  Mute note
=============================================================================
Comments