Spiderbait - Tonite Chords & Tabs

 

Tonite Chords & Tabs

Spiderbait Chords & Tabs

Version: 1 Type: Tab 0 ratings
1 star 2 stars 3 stars 4 stars 5 stars
comments

Tonite Tab

   
e|-----------------------------------------|
B|-----------------------------------------|
G|-----------------------------------------|
D|-----------------------------------------|
A|-7-7-7-7-7-7-7-7-7-7-7-7-7-7-7-7-7-7-7-7-|
E|-0-0-0-0-0-0-0-0-0-0-0-0-0-0-0-0-0-0-0-0-| fade in

main:
e|------------------------------------------------------------|
B|------------------------------------------------------------|
G|------------------------------------------------------------|
D|------------------------------------------2~~~~~~~~~~~~~~---|
A|-7-7-7-11-9-7-4-4-4-4-4-4-4-4-4-4-4-4-2h4---2-2-2-2-2-2-2-2-|
E|-0-0-0-0--0-0-0-0-0-0-0-0-0-0-0-0-0-0-0---0-0-0-0-0-0-0-0-0-|

e|-7---7---7---9-7---7---7---9-7-|
B|---9---9---9-----9---9---9-----|
G|-------------------------------|
D|-------------------------------|
A|-------------------------------|
E|-------------------------------|

bridge
e|-----------------|
B|-----------------|
G|-9-9-9-9-9-9-9---|
D|-----------------|
A|-7-7-7-7-7-7-7---| x4
E|---------------0-|
[ Tab from: http://www.guitartabs.cc/tabs/s/spiderbait/tonite_tab.html ]
e|--------------------------------------------------------------|-----------------|
B|--------------------------------------------------------------|-----------------|
G|-9-9-9-9-9-9-9-9-14-14-14-14-14-14-14-14-14-14-14-14-14-14-16-|-9-9-9-9-9-9-9-9-|
D|--------------------------------------------------------------|-----------------|
A|-7-7-7-7-7-7-7-7-12-12-12-12-12-12-12-12-12-12-12-12-12-12-14-|-7-7-7-7-7-7-7-7-|
E|--------------------------------------------------------------|-----------------|
                                                                  ^^^^^^^^^^^^
                                                don't play on the fourth time

e|----------------------------------------------|
B|-9-9-10-10-9--7-7-9-9-7--5-5-7-7-5--5-5-7-7-5-|
G|-9-9--9--9-9--7-7-7-7-7--5-5-5-5-5--5-5-5-5-5-|
D|-9-9--9--9-9--7-7-7-7-7--5-5-5-5-5--5-5-5-5-5-|
A|-7-7--7--7-7--5-5-5-5-5--3-3-3-3-3--3-3-3-3-3-| twice
E|----------------------------------------------|

e|----------------------------------------------|
B|----------------------------------------------|
G|-9--------------------------------------------|
D|-9--------------------------------------------|
A|-7--------------------------------------------|
E|----------------------------------------------|
play this for awhile then fade out and play the verse but only play the notes on the A
string and with distortion...spread them out a little, listen to the song for timing.
Comments