Spiderbait - Shazam Chords & Tabs

 

Shazam Chords & Tabs

Spiderbait Chords & Tabs

Version: 1 Type: Bass Tab 0 ratings
1 star 2 stars 3 stars 4 stars 5 stars
comments

Shazam Bass Tab

SPIDERBAIT -  SHAZAM 

Drop D tuning.. the whole so is clean so it makes it 
easy.. no effects.

INTRo/VERSE	
G]-----------------------|-----------------------|
D]-----------------------|-----------------------|
A]-----------------------|-----------------------|
D]-12-0--10-0--9-0--10-0-|-12-0--10-0--9-0--10-0-|
						   x6
G]-----------------------|-----------------------|
D]-----------------------|-----------------------|
A]-----------------------|------------8--8--8--8-|
D]-12-0--10-0--9-0--10-0-|-12-0--10-0------------|


Do that 6 times but on the last time dont do the 8's on the A string,
just keep playing trough it normally untill this bit

CHORUS
G]------------------|-----------------|
D]------------------|-----------------|
A]------------------|-----------------|
D]--5-5-5-5-5-5-5-5-|-5-5-5-5-5-5-5-5-|
	ahhhh		oahhhh
					x1
G]------------------|-----------------|
D]------------------|-----------------|
A]------------------|-----------------|
D]--5-5-5-5-5-5-5-5-|-5-5-5-5-5-5-5---|
	ahhhh		Your still in the Game

VERSE
G]-----------------------|-----------------------|
D]-----------------------|-----------------------|
A]-----------------------|-----------------------|
D]-12-0--10-0--9-0--10-0-|-12-0--10-0--9-0--10-0-|
						   x5
G]-----------------------|-----------------------|
D]-----------------------|-----------------------|
A]-----------------------|------------8--8--8--8-|
D]-12-0--10-0--9-0--10-0-|-12-0--10-0------------|
[ Tab from: http://www.guitartabs.cc/tabs/s/spiderbait/shazam_btab.html ]
do that 5 TIMES, the singing dosent come in till the 2nd time.

Chorus

then back to the intro 1 time

G]------------------------|------------------------|
D]------------------------|------------------------|
A]------------------------|------------------------|
D]--12-0--10-0--9-0--10-0-|--12-0--10-0--9-0--10-0-|
						     x1
G]------------------------|------------------------|
D]------------------------|------------------------|
A]------------------------|------------------------|
D]--12-0--10-0--9-0--10-0-|--12-0--10-0--9-0--10-0-|

then to the...

BREAKDOWN - After 2nd Chorus
G]------------------------|-------------------------|
D]------------------------|-------------------------|
A]------------------------|-------------------------|
D]-8--8--8--8--8--8--8--8-|-10-10-10-10-10-10-10-10-|
(you can try harder but you never really had the time)

G]------------------------|------------------------|
D]------------------------|------------------------|  x1
A]------------------------|------------------------|
D]--12-0--10-0--9-0--10-0-|--12-0--10-0--9-0--10-0-|

G]------------------------|-------------------------|
D]------------------------|-------------------------|
A]------------------------|-------------------------|
D]-8--8--8--8--8--8--8--8-|-10-10-10-10-10-10-10-10-|
(so take a look around and see what....)


ENDING
G]-----------------------|-----------------------|
D]------------------12---|------------------12---|
A]-----------------------|-----------------------|    x4
D]-12-12-12-12-12--------|-12-12-12-12-12--------|
you never should have been!
Comments