Spiderbait - Put It Down Chords & Tabs

 

Put It Down Chords & Tabs

Spiderbait Chords & Tabs

Version: 1 Type: Tab 0 ratings
1 star 2 stars 3 stars 4 stars 5 stars
comments

Put It Down Tab

SONG TITLE - Put It Down
ARTIST - Spiderbait
ALBUM - Tonight Alright

ive look on baisicly every site i can think of to find a tab for this song but i couldnt, so i thought
f**k it ill just do it myself

standard tuning
use a ds-1 throughout the whole song


INTRO/VERSE

E]-----------------------|-----------------------|
B]-----------------------|-----------------------|
G]-----------------------|-----------------------|
D]--9-/11-11-11-11-11-11-|--9-/11-11-11-11-11-11-|
A]--9-/11-11-11-11-11-11-|--9-/11-11-11-11-11-11-|
E]--7-/9--9--9--9--9--9--|--7-/9--9--9--9--9--9--|
							X4
E]-----------------------|-----------------------|
B]-----------------------|-----------------------|
G]--9-/11-11-11-11-11-11-|--9-/11-11-11-11-11-11-|
D]--9-/11-11-11-11-11-11-|--9-/11-11-11-11-11-11-|
A]--7-/9--9--9--9--9--9--|--7-/9--9--9--9--9--9--|
E]-----------------------|-----------------------|

Then...

E]-----------------------|-----------------------|
B]-----------------------|-----------------------|
G]--9-/11-11-11-11-11-11-|--9-/11-11-11-11-11-11-|
D]--9-/11-11-11-11-11-11-|--9-/11-11-11-11-11-11-|
A]--7-/9--9--9--9--9--9--|--7-/9--9--9--9--9--9--|
E]-----------------------|-----------------------|

E]-----------------------|-----------------------|
B]-----------------------|-----------------------|
G]--9-/11-11-11-11-11-11-|--9-/11-11-11-11-11-11-|
D]--9-/11-11-11-11-11-11-|--9-/11-11-11-11-11-11-|
A]--7-/9--9--9--9--9--9--|--7-/9--9--9--9--9--9--|
E]-----------------------|-----------------------|

			REPEAT (for verse)




CHORUS
[ Tab from: http://www.guitartabs.cc/tabs/s/spiderbait/put_it_down_tab.html ]
E]-----------------------|-----------------------|
B]-----------------------|-----------------------|
G]-----------9--9---6----|--6--6--6--6--6--6-----|     X4
D]---7-------9--9---6----|--6--6--6--6--6--6-----|
A]---7-------7--7---4----|--4--4--4--4--4--4-----|
E]---5-------------------|-----------------------|



REPEAT CHORUS (with lead guitar)

Rhythm guitar on top, Lead on bottom


E]-----------------------|-----------------------|
B]-----------------------|-----------------------|
G]-----------9--9---6----|--6--6--6--6--6--6-----|  
D]---7-------9--9---6----|--6--6--6--6--6--6-----|
A]---7-------7--7---4----|--4--4--4--4--4--4-----|
E]---5-------------------|-----------------------|
							x4
E]-----------------------|-----------------------|
B]-----------------------|-----------------------|
G]-------9-11-11^11p9----|-9---------------------|
D]--------------------11-|---11-11-11-11-11-11---|
A]--0-0------------------|-----------------------|
E]-----------------------|-----------------------|
that was just one of the licks thats played over and over during the chorus


BRIDGE
the lead plays this just before the next verse. it goes for like 8 bars befor eth efinal
chorus
like when theyres a 2 bar rest
E]-----------------------|-----------------------|
B]-----------------------|-----------------------|
G]-----------------------|-----------------------|
D]--9h11~~~~~~~~~--------|-----------------------|  
A]-----------------------|-----------------------|
E]-----------------------|-----------------------|


end with the bridge and then end with
E]-----------------------|
B]-----------------------|
G]-----------------------|
D]--11~~\----------------|
A]--11~~\----------------|
E]--9 ~~\----------------|



ORDER

INTRO
VERSE
CHORUS
SOLO (SORRY NO TAB YET)
VERSE
CHORUS
CHORUS + LEAD BITS X2
BRIDGE



im not 2 sure on the order. evrything else should be shweet. also sorry that theyre's no
solo. thats cumin soon

enjoy. please comment/rate
Comments