Spiderbait - Put It Down Chords & Tabs

 

Put It Down Chords & Tabs

Spiderbait Chords & Tabs

Version: 1 Type: Bass Tab

Put It Down Bass Tab

   
----------------------------------------------------------------------------
			   Put It Down - Spiderbait
----------------------------------------------------------------------------

Tabbed By : ManicMTB
e-mail: jdcharger68@hotmail.com (all comments and abuse here please)

Tuning: Standard (a.k.a. E a D G)

Riff One:
G|-------------------------------------------------|
D|-------------------------3-5-5-5-5-5-3-5-5-5-5-5-|
A|-3-5-5-5-5-5-3-5-5-5-5-5-------------------------|
E|-------------------------------------------------| x4

Riff Two:
G|-------------|
D|-3-5-5-5-5-5-|
A|-------------|
E|-------------| x2

Riff One:
G|-------------------------------------------------|
D|-------------------------3-5-5-5-5-5-3-5-5-5-5-5-|
A|-3-5-5-5-5-5-3-5-5-5-5-5-------------------------|
E|-------------------------------------------------| x4

Riff Two:
G|-------------|
D|-3-5-5-5-5-5-|
A|-------------|
E|-------------| x2

Riff Three:
G|-------------|
D|---5---------|
A|-3---5-5-5-5-|
E|-------------| x4
[ Tab from: http://www.guitartabs.cc/tabs/s/spiderbait/put_it_down_btab.html ]
Riff One:
G|-------------------------------------------------|
D|-------------------------3-5-5-5-5-5-3-5-5-5-5-5-|
A|-3-5-5-5-5-5-3-5-5-5-5-5-------------------------|
E|-------------------------------------------------| x6

Riff Two:
G|-------------|
D|-3-5-5-5-5-5-|
A|-------------|
E|-------------| x2

Riff Three:
G|-------------|
D|---5---------|
A|-3---5-5-5-5-|
E|-------------| x4

Riff Four:
G|-----------------|
D|-3-3-3-3-3-3-5-0-|
A|-----------------|
E|-----------------| x4

Riff Five:
G|-----|
D|-----|
a|-3-5-|
E|-----| x1

Riff Three:
G|-------------|
D|---5---------|
A|-3---5-5-5-5-|
E|-------------| x8

Riff Four:
G|-----------------|
D|-3-3-3-3-3-3-5-0-|
A|-----------------|
E|-----------------| x4

Riff Five:
G|-----|
D|-----|
a|-3-5-|
E|-----| x1

There we go, I think thats how it goes.....it sounds right anyway. So uh...yeah...
comments and CONSTRUCTIVE critism to the e-mail mentioned at the top and that ladies
and gents (and all people in between :P) that is my first tab.

| /  slide up
| \  slide down
| h  hammer-on
| p  pull-off         }You don't need any of these but here they are anyway
| ~  vibrato
| +  harmonic
| x  Mute note
============================================================================