Spiderbait - Plastic Chords & Tabs

 

Plastic Chords & Tabs

Spiderbait Chords & Tabs

Version: 1 Type: Bass Tab 0 ratings
1 star 2 stars 3 stars 4 stars 5 stars
comments

Plastic Bass Tab

   
Title: Plastic
Artist: Spiderbait
Tabbed by Rhys Stephens & Jeremy (German) Bowtell and some bad seedy ol' man

This is one of our first tabs, but dont let that scare you.

dROPED d TUNINg

Intro: This is quite hard to remember which order the riff goes in but it sounds awesome. 
G:--------------------------|--------------------------|             
d:--------------------------|--------------------------|  x 2
A:-5-5-5---5-4-3-3-3---3----|--5-5-5---5---3-3-3---3-4-|
D:-------7-----------5---5--|--------7---7-------5-----|

Verse: Stuff in brackets means you can play it if you want
G:---------------------------|             
d:---------------------------|  x 3
A:-5-(5)--------3-(3)--------|
D:--------7-(7)---------5-(5)|
[ Tab from: http://www.guitartabs.cc/tabs/s/spiderbait/plastic_btab.html ]
Bridge:
G:-----------------|
d:-----------------|
A:-----------------|
D:-7-7-7-7-7-7-7-7-|

Chorus:
G:---------------------------|             
d:---------------------------|  x 3
A:--------------3-(3)--5-(5)-|
D:-7-(7)--5-(5)--------------|

End Chorus:
G:-----------------------------------------------|             
d:-----------------------------------------------|
A:--------------3-3-3-3-3-3-3-3--5-5-5-5-5-5-5-5-|
D:-7-(7)--5-(5)----------------------------------|

Song Order:
Intro
Verse
Bridge
Verse
Bridge
Chorus
End Chorus
Verse
Bridge
Verse
Bridge
Chorus
End Chorus
Intro
Chorus
End Chorus
End song on A

This is a top song, and if you need any other songs tabbed, email to rhys: raz@gsat.net.au
Or alternativly, German: fattyfarm@hotmail.com 

Thanks diggers.

Floppy is cool.

Comments