Spiderbait - Old Man Sam Chords & Tabs

 

Old Man Sam Chords & Tabs

Spiderbait Chords & Tabs

Version: 2 Type: Tab 0 ratings
1 star 2 stars 3 stars 4 stars 5 stars
comments

Old Man Sam Tab

   
Band: Spiderbait
Album: Ivy and the big apple
Song: Old man sam
Tabbed by: Joely > madsnake91@hotmail.com

Intro.

e------------------------|
b------------------------|
G------------------------|
D----3---4---5---6-------|
A--1---2---3---4---------|
E------------------------|


e------------------------------------------|
b------------------------------------------|
G------------------------------------------|
D----7---7---7---7---7---7---7-------------|     x3
A--5---5---5---5---5---5---5---4-----------|
E------------------------------------------|

e------------------------------------------|
b------------------------------------------|
G------------------------------------------|
D----7---7---7---7---7---7--7--7--6--------|     x1
A--5---5---5---5---5---5----------4--------|
E------------------------------------------|

Verse.
[ Tab from: http://www.guitartabs.cc/tabs/s/spiderbait/old_man_sam_tab_ver_2.html ]
e---------------------------------------------------------------|
b---------------------------------------------------------------|
G---------------------------------------------------------------|
D----7---7---7---7---7---7---7---6---5---5---5---5---5---5---5--|
A--5---5---5---5---5---5---5---4---3---3---3---3---3---3---3----|
E---------------------------------------------------------------|

e-----------------------------------|
b-----------------------------------|
G-----------------------------------|
D----6---7---7---7---7---7---7--6---|
A--4---5---5---5---5---5---5----4---|
E-----------------------------------|

Chorus.

    A     F    G
e-------------------|
b-------------------|
G-------------------|
D---7-----3----5----|
A---7-----3----5----|
E---5-----1----3----|

Interlude
                                     C
e---------------------------------------|
b---------------------------------------|
G---------------------------------------|
D---5---7---5---7---5---7---5---7---10--|
A---5---7---5---7---5---7---5---7---10--|
E---3---5---3---5---3---5---3---5---8---|

Outro.

e---------------------------------------|
b---------------------------------------|
G---------------------------------------|
D----7---7---7---7---7--8--7------------|
A--5---5---5---5---5----6--5------------|
E---------------------------------------|


hope u have fun trend setters. dont ever forget,...

        "just cause we rock,..doesn't mean we're made of stone...."

                                                -cheers-
Comments