Spiderbait - Fucken Awesome Chords & Tabs

 

Fucken Awesome Chords & Tabs

Spiderbait Chords & Tabs

Version: 1 Type: Tab 0 ratings
1 star 2 stars 3 stars 4 stars 5 stars
comments

Fucken Awesome Tab

Fucken' Awesome
By Spiderbait


This is such a cool song, not to mention it is really easy to play-- just the basic
punk power chord progression idea.  You'll have to listen for the strumming pattern...
I'm just giving the frets and the sequence.

Intro/Verse:

1-------------------------------------------------|
2-------------------------------------------------|
3-------------------------------------------------|
4-------------------------------------------------|
5-----------5---7---------------------------------|
6---7---5-----------------------------------------|


Bridge:
[ Tab from: http://www.guitartabs.cc/tabs/s/spiderbait/fucken_awesome_tab.html ]
1-------------------------------------------------|
2-------------------------------------------------|
3-----------7---9---------------------------------|
4---9---7---7---9---------------------------------|
5---9---7---5---7---------------------------------|
6---7---5-----------------------------------------|

Chorus:
("Don't wanna walk away...")
1-------------------------------------------------|
2-------------------------------------------------|
3-------5-------7---------------------------------|
4---5---5---7---7---------------------------------|
5---5---3---7---5---------------------------------|
6---3-------5-------------------------------------|
Comments