Spiderbait - Calypso Chords & Tabs

 

Calypso Chords & Tabs

Spiderbait Chords & Tabs

Version: 7 Type: Tab 0 ratings
1 star 2 stars 3 stars 4 stars 5 stars
comments

Calypso Tab

By: jason373

e ------0-------------0------------0------------0-----
a ---------2-------------3------------2-----------3---
d ----2-------2-----2-------2----1-------1----2-----2-
g ----------------------------------------------------
b ----------------------------------------------------
e ----------------------------------------------------
     "Sunshine on my window..."
       _repeat a few times for verses_

[ Tab from: http://www.guitartabs.cc/tabs/s/spiderbait/calypso_tab_ver_7.html ]
   heavy chorus
e ------------------------------------------------
a ------------------------------------------------
d ------------5-5----7-7----9-9-------------------
g ----7-7-----5-5----7-7----9-9-------------------
b ----7-7-----3-3----5-5----7-7-------------------
e ----5-5-----------------------------------------
  (3x)    "Outside, all around me..."
          


e ---------------------------------------------
a ---------------------------------------------
d ---------------------------------------------
g ----7-7-------6-6-------4-4-----2-2----------
b ----7-7-------6-6-------4-4-----2-2----------
e ----5-5---0---4-4---0---2-2-----0-0----------


e ------------------------------------------
a ------------------------------------------
d ----7-7-----9-9---------------------------
g ----7-7-----9-9-----7---7-7---------------
b ----5-5-----7-7-----7---7-7---------------
e --------------------5---5-5---------------

"Don't tell me, you can't see..." 
repeat 3 1/2 times. i.e, no third chord fourth time around

Yeah maz! I think it's right and it's about time this site had this very old song correctly tabbed. 


Comments