Spiderbait - Calypso Chords & Tabs

 

Calypso Chords & Tabs

Spiderbait Chords & Tabs

Version: 3 Type: Tab 0 ratings
1 star 2 stars 3 stars 4 stars 5 stars
comments

Calypso Tab

   
Band: Spiderbait
Song: Calypso

 (Verses)

 Sunshine.....on my window...

 e----0-------2-------0-------2-------------|
 b------2-------3-------0-------3-----------|
 G--2-----2-2-----2-1-----1-2-----2---------|
 D------------------------------------------|
 A------------------------------------------|
 E------------------------------------------|
 
 (Chorus)
    
 Outside....all around me...    
[ Tab from: http://www.guitartabs.cc/tabs/s/spiderbait/calypso_tab_ver_3.html ]
     A     C     D     E
 e--------------------------------                  -------------|
 b--------------------------------             -----------------|
 G--------5-5---7-7---9-9----            -------------------| 
 D--7-7---5-5---7-7---9-9--- x3     --7--6--4--2--|      x1   
 A--7-7---3-3---5-5---7-7----           -7--6--4--2--|  
 E--5-5--------------------------           -5--4--2--0--|

 (Bridge)

 Dont tell me.......
 
 e----------------|
 b----------------|
 G--7---9---------|
 D--7---9---7-----|
 A--5---7---7-----| x4 
 E----------5-----|  
Comments