Spice Girls - Viva Forever Chords & Tabs

 

Viva Forever Chords & Tabs

Spice Girls Chords & Tabs

Version: 1 Type: Tab 0 ratings
1 star 2 stars 3 stars 4 stars 5 stars
comments

Viva Forever Tab

   
|--------------------|
|Title: Viva Forever |
|Artist: Spice Girls |
|Album: Spiceworld   |
|--------------------|




|------------------|
|      KEY         |
|		   |
|    h=hammer      |
|   ~=Vibrato	   |
|------------------|

Chords used for Verse 1, 2, and chorus:


     D#m	Bbm	    B	       F#
e-----2----------1----------2----------2-------------------
B-----4----------2----------4----------2-------------------
G-----3----------3----------4----------3-------------------
D-----4----------3----------4----------4-------------------
A--------------------------------------4-------------------
E--------------------------------------2-------------------



Chord Progression: D#m-Bbm-B-F#


Accoustic Guitar solo after 2nd repeat of chorus

e---6---6---6------------------------------------6---6---6---------------------------|
B---7-----------9---7---6---7---7----------------7-----------9---7---6---------------|
G---8--------------------------------------------8-----------------------6-----------|
D---8--------------------------------------------8-----------------------------------|
A------------------------------------------------------------------------------------|
E------------------------------------------------------------------------------------|
[ Tab from: http://www.guitartabs.cc/tabs/s/spice_girls/viva_forever_tab.html ]
e------------------6--7--7h9--7--7~~~----------6---7---7---6------7---6---6~~~~------|
B---------6--7--9----------------------------------------------9---------------------|
G---6--8-----------------------------------------------------------------------------|
D------------------------------------------------------------------------------------|
A------------------------------------------------------------------------------------|
E------------------------------------------------------------------------------------|

e---6---6---6------------------------------------6---6---6---------------------------|
B---7-----------9---7---6---9---7----------------7-----------9---7---6---------------|
G---8--------------------------------------------8-----------------------6-----------|
D---8--------------------------------------------8-----------------------------------|
A------------------------------------------------------------------------------------|
E------------------------------------------------------------------------------------|


e------------------6--9--9--7--7~~~----------6---7---7---6--------7---6--------------|
B---------6--7--9---------------------------------------------9-----------7~~~~------|
G---6--8-----------------------------------------------------------------------------|
D------------------------------------------------------------------------------------|
A------------------------------------------------------------------------------------|
E------------------------------------------------------------------------------------|

Resume playing chord progression


Tabbed by Jerrybean@hotmail.com
Comments