Spice Girls - 2 Become 1 Solo Chords & Tabs

 

2 Become 1 Solo Chords & Tabs

Spice Girls Chords & Tabs

Version: 1 Type: Tab 0 ratings
1 star 2 stars 3 stars 4 stars 5 stars
comments

2 Become 1 Solo Tab

#----------------------------------PLEASE NOTE---------------------------------#
#This file is the author's own work and represents their interpretation of the #
#song. You may only use this file for private study, scholarship, or research. #
#------------------------------------------------------------------------------#
#

Date: Thu, 01 Jan 1998 11:42:29 -0600
From: Scott 
Subject: TAB: s/spice_girls/2_become_1_guitar_solo_correction.txt

Title:      ** UPDATE TO** "2 Become 1"
Artist:     Spice Girls
ALBUM/CD:   "Spice"
Tabbed by:  Scott

********************************************
GUITAR SOLO BEGINNING AT 2:13
********************************************

KEY:
/ -slide up
\ -slide down
h - hammer on
p -pull off
[ Tab from: http://www.guitartabs.cc/tabs/s/spice_girls/2_become_1_solo_tab.html ]
e-------------------------------------------|
B-11-12-14-12-11----------------------------|
G----------------11--------10-11-p10\8----8-|
D----------------------11--------------11---|
A-------------------------------------------|
E-------------------------------------------|

e-------------------------------------------|
B-------------------------------------------|
G------------11------10---6-8-8-6h8---------|
D-11-9-11-8-----9-8-------------------------|
A-------------------------------------------|
E-------------------------------------------|

e------------6-9-9/12-----------------------|
B-----6-7-9---------------------------------|
G-6-8---------------------------------------|
D-------------------------------------------|
A-------------------------------------------|
E-------------------------------------------|
Comments